Received: from violet.berkeley.edu (violet.Berkeley.EDU [128.32.155.22]) by post-office.nevada.edu (8.6.4/8.6.4) with ESMTP id TAA25490 for ; Mon, 28 Feb 1994 19:15:13 -0800
Received: from DialupEudora by violet.berkeley.edu (8.6.4/1.33r)
id TAA09790; Mon, 28 Feb 1994 19:15:09 -0800
Date: Mon, 28 Feb 1994 19:15:09 -0800
Message-Id:
To: [email protected]
From: [email protected] (Rob Schenk)
Subject: Tab: Kiss "Rip It Out"
Rip It Out (from the KISS-LP "Ace Frehley")
----------
transcribed by Rainer Montag([email protected])
Tune down 1/2 step
RhythmFig.1
(s = slide)
E D C# A B A B
E|----------------------------------------------------|
B|----------------------------------------------------|
G|--9--9-9-9-9-9-9---7---6----------------------------|
D|--9--9-9-9-9-9-9---7---6---7---7-s-9--9---7-s-9--9--|
A|--7--7-7-7-7-7-7---5---4---7---7-s-9--9---7-s-9--9--|
E|---------------------------5---5-s-7--7---5-s-7--7--|
RhythmFig.2
G A D C G F# G G A B E B
E|---------------|-------------------------|--------------------------------|
B|---------------|-------------------------|--------------------------------|
G|---------------|--7-7-7---5-5------------|--------------------------9-----|
D|--5--5---7--7--|--7-7-7---5-5---5--4--5--|--5---7--7---7--7---9--9--9--9--|
A|--5--5---7--7--|--5-5-5---3-3---5--4--5--|--5---7--7---7--7---9--9--7--9--|
E|--3--3---5--5--|----------------3--2--3--|--3---5--5---5--5---7--7-----7--|

RhythmFig.3
D D# E
E|--------------|
B|--------------|
G|--7--8--9--9--|
D|--7--8--9--9--|
A|--5--6--7--7--|
E|--------------|




Ваше мнение



Капча