Band : Kiss
Song : Reason to live
Rhythm Fig. 1

E|-----------------------------------------------|
B|-----------------------------------------------|
G|--7------5-----------7------5------------------|
D|--7------5-----------7------5------------------|
A|-(5)----------------(5)------------------------|
E|-----------------------------------------------|

E|-----------------------------------------------|
B|-----------------------------------------------|
G|--7------5-----------7------5------------------|
D|--7------5-----------7------5------------------|
A|-----------------------------------------------|
E|-(6)----------------(6)------------------------|
Rhythm Fig. 2

E|-----------------------------------------------|
B|-----------------------------------------------|
G|--12------10------------12------10-------------|
D|--12------10------------12------10-------------|
A|-(10)------------------(10)--------------------|
E|-----------------------------------------------|

E|-----------------------------------------------|
B|-----------------------------------------------|
G|--12------10------------12------10-------------|
D|--12------10------------12------10-------------|
A|-----------------------------------------------|
E|-(11)------------------(11)--------------------|
Solo

E|-------------------------------------------------------------------|
B|-------------------------------------------------------------------|
G|------------------------------------------------------10-12-10-----|
D|--/12--------------------------------------------------------------|
A|-------------------------------------------------------------------|
E|-------------------------------------------------------------------|

E|-------------------------------------------------------------------|
B|-------------------------------------------------------------------|
G|--12b-12b---12-10-12~----------------10**--------------------------|
D|-------------------------------10-12------12**-10**----------------|
A|-------------------------10-12---------------------12**-11**-10**--|
E|-------------------------------------------------------------------|
P.M. - - ->

E|------------10-----------10----------15b--15~---------------p10----|
B|--------13------13b-r13-------13/15--------------------------------|
G|--/12--------------------------------------------------------------|
D|-------------------------------------------------------------------|
A|-------------------------------------------------------------------|
E|-------------------------------------------------------------------|
If you feel this tab is wrong please e-mail me at [email protected]




Ваше мнение



Капча