-------------------------------------------------------------------------------
Plaster caster - kiss
-------------------------------------------------------------------------------
Tabbed by:JOhn ILTIS
Email:[email protected]

Tuning:1/2 step down
A D D D D D D D A
E --2--2--2-3-2-2-2-3-2-2-2--- REPEAT
B|--2--3--3-3-3-3-3-3-3-3-2---
G|--2--2--2-2-2-2-2-2-2-2-2---
D|--2--0--0-0-0-0-0-0-0-0-2---
A|--0---------------------0-
E|----------------------------

A D D D D D D D A
E --2--2--2-3-2-2-2-3-2-2-2---
B|--2--3--3-3-3-3-3-3-3-3-2---
G|--2--2--2-2-2-2-2-2-2-2-2---
D|--2--0--0-0-0-0-0-0-0-0-2---
A|--0---------------------0-
E|----------------------------

A D D D D D D D A
E --2--2--2-3-2-2-2-3-2-2-2---
B|--2--3--3-3-3-3-3-3-3-3-2---
G|--2--2--2-2-2-2-2-2-2-2-2---
D|--2--0--0-0-0-0-0-0-0-0-2---
A|--0---------------------0-
E|----------------------------




Ваше мнение



Капча