From: "Asgeir Ruud"
Making Love - Kiss
From the album Rock and Roll Over
Transcribed by Asgeir Ruud
Intro
---------------------------------|---------------------------------
---------------------------------|---------------------------------
-----9-----9-----9-7---7-----9---|-----9-----9-----9-7---7-------7-
-----9-----9-----9-7-9-7-----9---|-----9-----9-----9-7-9-7---7h9-7-
-----7-----7-----7---9-----------|-----7-----7-----7---9-----7h9---
-0-0---0-0---0-0-----------0-----|-0-0---0-0---0-0-----------------
PM PM PM PM PM PM
Repeat 2x
I just hate when the girl says wait...
---------------------------------|---------------------------------
---------------------------------|---------------------------------
-----9-----9-----9-7---7-----9---|-----9-----9-----7---------------
-----9-----9-----9-7-9-7-----9---|-----9-----9-----7---7-7-----9---
-----7-----7-----7---9-----------|-----7-----7-----5---7-7-----9---
-0-0---0-0---0-0-----------0-----|-0-0---0-0---0-0-----5-5-----7---
PM PM PM PM PM PM
Repeat 2x
...by my side, the whole night through...
---------------------------------|---------------------------------
---------------------------------|---------------------------------
-6-------------------------------|---------------------------------
-6-------------------------------|-7-------------------------------
-4-------------------------------|-7-------------------------------
---------------------------------|-5-------------------------------
Come on baby, don't leave me sad...
---------------------------------|---------------------------------
---------------------------------|---------------------------------
-6-------------------------------|-------------------7-7-7-7-7-7-7-
-6-------------------------------|-7-----------------7-7-7-7-7-7-7-
-4-------------------------------|-7-----------------5-5-5-5-5-5-5-
---------------------------------|-5-------------------------------
Makin' love, makin' love, makin' love, all night long
---------------------------------|---------------------------------
---------------------------------|---------------------------------
---------------------------------|---------------------------------
---------------------------------|---------------------------------
---7-5---5~--7-----7-5---5~--7---|---7-5---5~--7-5-----------5-5-5-
-0-----7-------0-------7-------0-|-------7-----------5---0---------
Makin' love, makin' love, makin' love, all night
---------------------------------|---------------------------------
---------------------------------|---------------------------------
---------------------------------|---------------------------------
---------------------------------|-------------------7-------------
---7-5---5~--7-----7-5---5~--7---|---7-5---5~--7-5---7-------------
-0-----7-------0-------7-------0-|-------7-----------5-------------
Repeat Intro




Ваше мнение



Капча