From: [email protected] (Rob Schenk)
Subject: tab: Kiss "love her all i can"
Love Her All I Can by Kiss
from the album "Dressed to Kill"
Tune down 1/2 step
intro
----------------------------------------------------------------------
----------------------------------------------------------------------
-7---7-------5----5-------9---9------5----5----------------------
-7---7-------5----5-------9---9------5----5----------------------
-5---5-------3----3-------7---7------3----3------3h5 vib----
----------------------------------------------------------------------
intro & chorus
--------------------------------------------------------
--------------------------------------------------------
--------------------------------------------------------
-------------------------------------3-----------------
--5-------------------3--------3--------5---3--------
--------2---3----5-------5----------------------5----
----------------------------------------------------------
----------------------------------------------------------
----------------------------------------------------------
--------------------------------------3-------------------
3---5-----------------3--------3--------5---3---5----
--------2---3---5--------5-----------------------------
---------------------------------------------------
---------------------------------------------------
---------------------------------------------------
---------------------------------3----------------
-5-----------------3-------3--------5---3-------
------2---3---5-------5----------------------5--
------------------------------------------------
------------------------------------------------
------------------------------------------------
-----------------------------3------------------
-3---------------------3--------5-------------
------2---3--5---5----------------------------
rhythm during verses
------------------------------------------------------
------------------------------------------------------
-7--7------5--5------8--8-----3--3------5-------
-7--7------5--5------8--8-----3--3------5-------
-5--5------3--3------6--6-----1--1------3-------
------------------------------------------------------
right before solo
--------------------------------------
--------------------------------------
-7-----7-------7--7------7---------
-7-----7-------7--7------7---------
-5-----5-------5--5------5---------
--------------------------------------
outro
---------------------------------------------
---------------------------------------------
------------------------------------7-------
------------------------------------7-------
--5---3-----------------5vib----5-------
-----------5---3---1-----------------------




Ваше мнение



Капча