Let Me Go, Rock 'n' Roll by KISS
From the album Hotter Than Hell
--------------------------------------------------------------------
rhythm 1 repeat
e:-------------------------------------------------------|
B:-------------------------------------------------------|
G:--2--2------2------2--2------2------2--2------2------2-|
D:--2--2------2------2--2------2------2--2------2------2-|
A:--0--0--3-4---0-3--0--0--3-4---0-3--0--0--3-4---0-3--0-|
E:-------------------------------------------------------|
fill 1
e:------5------5------5------5------5------5------5------5-------------------|
B:----5------5------5------5------5------5------5------5---------------------|
G:-7b-----7b-----7b-----7b-----7b-----7b-----7b-----7b------7/5/7/5/7/5/7/5/7|
D:---------------------------------------------------------------------------|
A:---------------------------------------------------------------------------|
E:---------------------------------------------------------------------------|
e:--------|
B:--------|
G:/5/7/5--|
D:--------|
A:--------|
E:--------|
e:---------------------------------------------------------------------------|
B:--------------------------------------------------------------------------8|
G:--2--2------2------2--2------2------2--2------2------2--2------2----------7|
D:--2--2------2------2--2------2------2--2------2------2--2------2----------5|
A:--0--0--3-4---0-3--0--0--3-4---0-3--0--0--3-4---0-3--0--0--3-4---0-3-0-----|
E:---------------------------------------------------------------------------|
w/fill 2
e:---------------------------------------------------------------------------|
B:-------8----------------------------------------------8-----------6-----8--|
G:--7----7--7-----2--2------2------2--2------2----------7-----7-----5-----7--|
D:--7----5--7-----2--2------2------2--2------2----------5-----7-----3-----5--|
A:--5-------5-----0--0--3-4---0-3--0--0--3-4---0-3-0----------5--------------|
E:---------------------------------------------------------------------------|

repeat rhythm 1
e:-------------------------------------|
B:--------------------20b-20b-20b-20b~-|
G:----2-2--2--2-2--2-------------------|
D:----2-2--2--2-2--2-------------------|
A:----0-0--0--0-0--0-------------------|
E:-------------------------------------|
fill 2
e:---------------------------------------------------------------------------|
B:--20/19/---20-19--19----20/19/---20-19--19---------------------------------|
G:--------19------19--19--------19------19--19--------2-----2---4b-4b-4/2/--2|
D:-------------------------------------------------4-----4----------------4--|
A:---------------------------------------------------------------------------|
E:---------------------------------------------------------------------------|
fill 3 over rhythm 1
e:-----17-----------17------------17------------17-----------17--17---20-20/1|
B:-17----20-17--17-----20-17--17-----20-17--17-----20-17-17----17------------|
G:-19b----------19b-----------19b-----------19b----------19b-----------------|
D:---------------------------------------------------------------------------|
A:---------------------------------------------------------------------------|
E:---------------------------------------------------------------------------|
e:7/---------------------------------------------|
B:--20/19/17-------------------------------------|
G:-----------19-17-----17-----------17-----------|
D:------------------17----17-19--17----17-19-19--|
A:-----------------------------------------------|
E:-----------------------------------------------|

solo repeat
e:------5-----5-----5-----5----------------------------------|
B:---5--5--5--5--5--5-----5----------------------------------|
G:---7b----7b----7b----7b----7b/7--5/7/5--5~-----------------|
D:--------------------------------------7-----7~--5----------|
A:--------------------------------------------------7-6-5-3--|
E:-----------------------------------------------------------|
repeat as necessary
e:---------------------------------------12b-12-11-10-8-10/9/8/10/9/8/10/9/8-|
B:-----10-10----10--12b-12b-12-10----10--------------------------------------|
G:--11-------11-------------------11-----------------------------------------|
D:---------------------------------------------------------------------------|
A:---------------------------------------------------------------------------|
E:---------------------------------------------------------------------------|
e:-10b-10b-8/10/8----------------------------------------|
B:----------------10-10b(13)-10-8---8-10-10-8---10b(13)~-|
G:--------------------------------9-----------9----------|
D:-------------------------------------------------------|
A:-------------------------------------------------------|
E:-------------------------------------------------------|
e:-------------------------------------|
B:--------------------------------8---7|
G:--7--7---7---7--7--7--7/9--9----7---7|
D:--5--5---5---5--5--5--5/7--7----5---4|
A:-------------------------------------|
E:-------------------------------------|




Ваше мнение



Капча