Ladies Room (from the KISS-LP "Rock And Roll Over")
-----------
transcribed by Rainer Montag([email protected])
Tune Down 1/2 step
Rhythm.Fig.1: Intro and Chorus
E A E A
E|-------------------------------------------------------------------|
B|-------------------------------------------------------------------|
G|-------------------------------------------------------------------|
D|--9-9-11-9-11-9---------------------9-9-11-9-11-9------------------|
A|--7-7-7--7-7--7-----7-7-9-7-9-7-----7-7-7--7-7--7-----7-7-9-7-9-7--|
E|--------------------5-5-5-5-5-5-----------------------5-5-5-5-5-5--|
C G D E
E|-----------------------------------------------------------------------|
B|-----------------------------------------------------------------------|
G|--------------------------7---7----------------------------------------|
D|--5-5-7-5-7-5-----5---5---7---7---9-9-11-9-9-9-11-9-9-9-11-9-9-9-11-9--|
A|--3-3-3-3-3-3-----5---5---5---5---7-7-7--7-7-7-7--7-7-7-7--7-7-7-7--7--|
E|------------------3---3------------------------------------------------|
Rhythm.Fig.2: Verse
D A E B
E|--------------------------------------|
B|--------------------------------------|
G|--7-7-7-7-----------9-9-9-9-----------|
D|--7-7-7-7--7-7-7-7--9-9-9-9--9-9-9-9--|
A|--5-5-5-5--7-7-7-7--7-7-7-7--9-9-9-9--|
E|-----------5-5-5-5-----------7-7-7-7--|
D A E
E|-----------------------------------------------------|
B|-----------------------------------------------------|
G|--7-7-7-7--------------------------------------------|
D|--7-7-7-7--7-7-7-7--9-9-11-11-9-9-11-11-9-9-11-11-9--|
A|--5-5-5-5--7-7-7-7--7-7-7--7--7-7-7--7--7-7-7--7--7--|
E|-----------5-5-5-5-----------------------------------|
Rhythm.Fig.3: Pre-Chorus
B C C D A A C D A
E|-----------------------------------------------|
B|-----------------------------------------------|
G|--4---5-----5---7---------------5-----7--------|
D|--4---5-----5---7-----7-----7---5-----7-----7--|
A|--2---3-----3---5-----7-----7---3-----5-----7--|
E|----------------------5-----5---------------5--|




Ваше мнение



Капча