It's My Life
KISS
KISS: Box Set (2001)
Cody Angus
Questions, Comments, Whatever: [email protected]
Intro & Verses
D G A5 G
eb-----------3---------------3--3-----------|
Bb-3---3-3---3-------3-------3--3-----------|
Gb-2---2-2---0----2--2--2----0--0-----------|
Db-0---0-0---0----2--2--2----0--0-----------|
Ab-0---0-0--------0--0--0-------------------|
Eb------------------------------------------|
eb|----------3-------------------------------
Bb|-3---3-3--3-------------------------------
Gb|-2---2-2--0---2-2-2-2-2--2--4-4-4-4-4-4-4-
Db|-0---0-0------2-2-2-2-2--2--4-4-4-4-4-4-4-
Ab|--------------0-0-0-0-0--0--2-2-2-2-2-2-2-
Eb|------------------------------------------
eb|------------------------------------------
Bb|-------------3---------------3------------
Gb|-7--7--7--4--2-2----7--7--7--2--2--4------
Db|-5--5--4--2--0-2----5--5--4--0--2--4------
Ab|---------------0----------------0--2------
Eb|------------------------------------------
Chorus
eb|------------------------------------------
Bb|------------------------------------------
Gb|-4--4-----------------------------4--4-4--
Db|-2--2--4--2-2-2---------------4---2--2-2--
Ab|-------2--0-0-0--0------------2-----------
Eb|-------------------4~--2~--0--------------
Solo
Eb|----------------------------------------------|
Bb|-12----14----16-------------------------------|
Gb|-14b---16b---18b------------------------------|
Db|----------------------------------------------|
Ab|----------------------------------------------|
Eb|----------------------------------------------|

Eb|----------------------------------------------|
Bb|--12----------16----17-------------19----17---|
Gb|--14b~--------18b---19b~-----------21b---19b~-|
Db|----------------------------------------------|
Ab|----------------------------------------------|
Eb|----------------------------------------------|

Eb|----------------------------------------------|
Bb|------------19----17--------------------------|
Gb|------------21b---19b~------------------------|
Db|----------------------------------------------|
Ab|-------------------------------------7--97---|
Eb|----------------------------------------------|

Eb|----------------------------------------------|
Bb|----------------------------------------------|
Gb|----------------------------------------------|
Db|--6--7-6---------/6---------------------------|
Ab|-----------9---------7----11--9----------7----|
Eb|-------------------------------------7/9------|

Eb|----------------------------------------------|
Bb|----------------------------------------------|
Gb|----------------------------------------/4----|
Db|--7p-6--7p-6--7p-6----------------------------|
Ab|--------------------7--(7)--------------------|
Eb|----------------------------------------------|

Eb|----------------------------------------------|
Bb|---------12~------------------12~-------14-14-|
Gb|--9--------------/4----9----------------------|
Db|----------------------------------------------|
Ab|----------------------------------------------|
Eb|----------------------------------------------|

Eb|----------------------------------------------|
Bb|--14--12-12-12--------------------------------|
Gb|----------------14-14-14--13-13-11------------|
Db|------------------------------------14--------|
Ab|----------------------------------------------|
Eb|----------------------------------------------|

Eb|----------------------------------------------|
Bb|-----------------------------12h15p12---15b---|
Gb|--13b--r13--------------14b-------------------|
Db|----------------------------------------------|
Ab|------------14--------------------------------|
Eb|----------------------------------------------|
< - 4x - >


Eb|--16b---16--16b-16--16b-16--------------------|
Bb|-----------------------------17--17-----------|
Gb|----------------------------------------------|
Db|----------------------------------------------|
Ab|----------------------------------------------|
Eb|----------------------------------------------|
It's My Life:
Simmons/Stanley
That's right
I've got a reputation
People know who I am
Rules are mean't to be broken
Can't kill what you don't understand
I see you running scared
I never knew you cared
Go and hide your head in the sand
Been to hell and back
I survived and that's a fact
It's my life (it's my life)
And I'll do what I want to
Do what I want to
Do what I like
It's my life (it's my life)
And I'll do what I want to
Do what I want to do...
My New Year's resolution
Is always the same
Gonna do what I like
Gonna do what I want
'Cause it's just my way (yeah)
I don't live for tomorrow
'Cause at the end of the day
Gonna shout it from the roof
Better face up to the truth
It's my life (it's my life)
And I'll do what I want to
Do what I want to
Do what I like
It's my life (it's my life)
And I'll do what I want to
Do what I want to
Do what I like
It's my life (it's my life)
And I'll do what I want to
Do what I want to
Do what I like
It's my life (it's my life)
And I'll do what I want to
Do what I want to do...
Ohhh Yeah!
(Solo)
[ACE]
Don't need an invitation
I don't play hard to get (no!)
Well I'm plain they claim
I can't be tamed
You know it doesn't matter
I'll swear if I like
I'll wear what I want
It's my life (oh yeah)
And I'll do what I want to (it's my life)
Do what I want to
Do what I like (oh yeah)
It's my life
And I'll do what I want to (do what you like)
Do what I want to (do it, do it)
Do what I like (do it)
It's my life (it's my life)
And I'll do what I want to
Do what I want to
Do what I like
It's my life (it's my life)
And I'll do what I want to
Do what I want to
Do what I like
It's my life (it's my life)
And I'll do what I want to
Do what I want to
Do what I like




Ваше мнение



Капча