From: [email protected] (Rob Schenk)
Subject: TAB: Kiss "I Was Made for Loving You"
Date: Tue Jun 7 10:36:55 CDT 1994
To:[email protected]
From:[email protected] (Rob Schenk)
I Was Made for Loving You
by Kiss
regular tuning
transcribed by Rob Schenk
intro
-----------------------------------
-------10----8----10-10--8--------
--------9----9-----9--9---9-------
--------7----7-----7--7---7-------
--------7----7-----7--7---7-00000-
-00000---00---000------0----------
---------------------------
---------------------------
-7----5-9-9-7-------------
-7----5-9-9-7-------------
-7-00-5-------------------
---------------------------
verse
---3----------3--------------
-5-3-4--5---5-3--4-5------2--2--2--2-2--
-4-0-4--4---4-0--4-4---2---2--2--2--2---
-2-0-4--2---2-0--4-2---2----2--2--2----
-x-x-2--x---x--x--2-x---0-0-----------
-0-3----0---0-3-----0------------
-------5-5-------------------
-------5-5-------------------
-3x-(--5-5--7-x-7-7--9--7-)--
-------7-7--7-x-7-7--9--7----
------------5-x-5-5--7--5----
------------------------------
---------------------------
---------------------------
---------------------------
-2222-4444-5555-9-2-9-4-5-7-
---------------------------
---------------------------




Ваше мнение



Капча