I want you by Kiss
Standard Tuning
(Intro)
G:----------
D:----------
A:-2----4---
E:----------
(Chorus)
G:------------------------------------
D:---------------4-------------------- X2
A:-6--6-6--4-4-4---6--6-6--6-5-4------
E:-------------------------------6-5-4
G:------------------------------
D:------------------------------ X2
A:------------------------------
E:-2--4--6-6-6-6--6---6-6-6-6--6
G:--------------------
D:--------------------
A:--------------------
E:-2--4--7--6--4--2--6
(Chorus)
G:------------------------------------
D:---------------4-------------------- X2
A:-6--6-6--4-4-4---6--6-6--6-5-4------
E:-------------------------------6-5-4
G:------------------------------
D:------------------------------ X2
A:------------------------------
E:-2--4--6-6-6-6--6---6-6-6-6--6
G:--------------------
D:--------------------
A:--------------------
E:-2--4--7--6--4--2--6
(Chorus)
G:------------------------------------
D:---------------4-------------------- X2
A:-6--6-6--4-4-4---6--6-6--6-5-4------
E:-------------------------------6-5-4
G:------------------------------------------------
D:------------------------------------------------ X3
A:-6-6-6-6--6---6-6-6-6--6---6-4---6-6-6-6--6-----
E:---------------------------------------------4-7
G:-----------------------------------------------------
D:-----------------------------------------------------
A:-6-6-6-6--6---6-6-6-6--6-4---6-6-6-6--6---6-5-4------
E:------------------------------------------------6-5-4
G:--------------------------------
D:--------------------------------
A:--------------------------------
E:-2--4--7--6--4--2--6--6--4--2--1
G:----------
D:----------
A:-2----4---
E:----------
G:----------------------------|-------------------------------------
D:---------------4---------4--|---------------4--------------------- X4
A:-6--6-6--4-4-4---6--6-6----4|-6--6-6--4-4-4---6--6-6---6-5-4------
E:----------------------------|--------------------------------6-4-6
Thanks, Please rate after you learn it.
Tabbed by:
_TheBassist01_




Ваше мнение



Капча