intro
-------------------------|
-------------------------|
-------------------------|
-------------------------|
-9-9-7-9-7-9-7-7-12-9----|
-------------------------|
-------------------------|
-------------------------|
-------------------------|
-------------------------|
-9-7-9-7-9-7-5-----------|
-------------------------|
--------------------|
--------------------|
-9--11---4----------|
-9--11---4--4-------|repeat intro
-7---9---2--4-------|
-------------2------|
pre chorus
--------------------------|
--------------------------|
-7--9---11----------------|
-7--9---11----------------|
-5--7----9----------------|
--------------------------|
chorus
-------------------------|
-------------------------|
-------------------------|
-------------------------|
-9-9-7-9-7-9-7-7-12-9----|
-------------------------|
-------------------------|
-------------------------|
-------------------------|
-------------------------|
-9-7-9-7-9-7-5-----------|
-------------------------|
--------------------------|
--------------------------|
-7--9---11----------------|
-7--9---11----------------|
-5--7----9----------------|
--------------------------|




Ваше мнение



Капча