I Still Love You by KISS
From the album Creatures Of The Night
--------------------------------------------------------------------

intro/verses rhythm 1
e:---------------------------------------------------------------------------|
B:------------------------0--------------------0-------------------0---------|
G:---------------------0-----0--------------0-----0-------------0-----0------|
D:------------------4-----------4--------4-----------4-------4-----------4---|
A:---------------------------------2--3-------------------4------------------|
E:---------------0-----------------------------------------------------------|
let ring ^note not repeated 2nd time around(I never

"You tell me that you're leavin'.."
e:---------------------------------------------------------------------------|
B:----------0----------------0-------------------0-------------------0-------|
G:-------0-----0----------0-----0-------------0-----0-------------0-----0----|
D:----4----------------4-----------4-------4-----------4-------4-----------4-|
A:-3------------------------------------3-------------------4----------------|
E:------------------0--------------------------------------------------------|
really noticed that before)

"I had myself believin'.."
e:---------------------------------------------------------------------------|
B:------------0----------------------0-------------------0-------------------|
G:---------0-----0----------------0-----0-------------0-----0-------------0--|
D:------4-----------0----------4-----------4-------4-----------4-------4-----|
A:---3------------------------------------------3-------------------4--------|
E:--------------------------0------------------------------------------------|

"..take it like a man.." "But if you gotta go....you gotta know
e:--------------------------------------------------0---------------------0--|
B:0-------------------0-------------------------1------1--------------3------|
G:---0-------------0-----0-------------------0------------0------------------|
D:------4-------4-----------4--------------------------------------4---------|
A:-----------3----------------------------0---------------------2------------|
E:---------------------------------------------------------------------------|

." "that it killin' me...." "And all the things..
e:---------------------0--------------------0-----------------------0--------|
B:3----------------1------1-------------3------3----------------1------1-----|
G:---0----------0------------0--------------------0----------0------------0--|
D:-----------------------------------4---------------------------------------|
A:-----------0--------------------2-----------------------0------------------|
E:---------------------------------------------------------------------------|

"I gotta make you see.."
e:------------0---------------------0----------------------------------------|
B:--------3------3--------------1------1------------------------0---------0--|
G:------------------0--------0------------0----------------------------------|
D:-----4-----------------------------------------------------4---------4-----|
A:--2---------------------0-------------------------------2---------0--------|
E:---------------------------------------------------------------------------|

to 2nd verse
e:----------------------------------|
B:-------0---------0----------------|
G:----------------------------------|
D:----4---------4-------------------|
A:----------------------------------|
E:-3---------2----------------------|

after 2nd verse(bridge) "I gotta make you see.." "I......
e:---------------------------------------------------------------------------|
B:-------------------------------------------------------------5-------------|
G:-----------------------------------5-------------4-4-4-4---4-4------7~-----|
D:-----------------------------------5-------------4-4-4-4---4-4-4----5~-----|
A:-----------------------------------3-------------2-2-2-2---2-2-2----3~-----|
E:---------------------------------------------------------------------------|
^fade in

gotta make you see..." "I gotta make you see..."
e:---------------------------------------------------------------------------|
B:----------------5~-------5-------------------------------------------------|
G:-5--------------4~-----4-4-------7~-----5------------------4------------2--|
D:-5--------------4~-----4-4-4-----5~-----5------------------4----4-4-----2--|
A:-3--------------2~-----2-2-2-----3~-----3------------------2----2-2-----0--|
E:---------------------------------------------------------------------------|

"I still....love you "I
e:---------------------------------------------------------------------------|
B:---------------------------------------------------------------------------|
G:-----------------------------------------4--------4--------5~--------------|
D:--2-2------------------------------------2--------2--------5~--------------|
A:--0-0------5----5-5-----4----4-4---------2--------2--------3~--------------|
E:-----------3----3-3-----2----2-2---------0--------0------------------------|

still love you (I really, really) Love you I
e:---------------------------------------------------------------------------|
B:---------------------------------------------------------------------------|
G:------4--------4--------5~----4~-------------------4-------4-------5~------|
D:------2--------2--------5~----4~-------------------2-------2-------5~------|
A:------2--------2--------3~----2~-------------------2-------2-------3~------|
E:------0--------0-----------------------------------0-------0---------------|

still....love you solo break
e:------------------------------------------------------------------10-------|
B:----------------------------------------------------------10b~-------10b-10|
G:---------4------4--------3~----4~----5---4---------------------------------|
D:---------2------2--------3~----4~----5---4---------------------------------|
A:---------2------2--------1~----2~----3---2---------------------------------|
E:---------0------0----------------------------------------------------------|

to verses
e:----------------------------------------------------------------|
B:-8---10-8~---------------8--8b~---------------------------------|
G:---9---------------7--9------------9b(12)-9b(12)---9/7---9~-----|
D:---------------/9--------------------------------------9--------|
A:----------------------------------------------------------------|
E:----------------------------------------------------------------|

interlude(before solo)
e:---------------------------------------------------------------------------|
B:------------0~-------------------0~--------------------0~------------------|
G:------------0~-------------------0~--------------------0~-----------2--2--2|
D:------------2~-------------------4~--------------------5~-----------2--2--2|
A:---2--2--2--2~-2--2-----4--4--4--4--4--4------5--5--5--5--5--5------0--0--0|
E:---0--0--0--0--0--0-----2--2--2--2--2--2------3--3--3--3--3--3-------------|

C5 C5 D5 D5
e:---------------------------------------------------------------------------|
B:----------------15b/15b-12---15b--15b~-------------------------------------|
G:--2--2--2--------------------------------------14b/14---14b-12-------------|
D:--2--2--2-------5~---------------------5~----------------------14~---------|
A:--0--0--0-------3~---------------------3~----------------------------------|
E:---------------------------------------------------------------------------|

E5 E5 B5 W/rhythm 1
e:--------------------------------------------------------------------19b~---|
B:----------------------------------------------------------------17---------|
G:-----7-9-7----9-7----------------------------------------------------------|
D:--/9--------------9-7--5/7/5------------------4-4-4-4-4-4-4----------------|
A:-----------------------------7-5--3/5/3/2~----2-2-2-2-2-2-2----------------|
E:---------------------------------------------------------------------------|

e:-19-18-17------------------------------------------------------------------|
B:----------20/17-20~--20b----------17--20b~--20-17--------------------------|
G:----------------------------17-19-----------------17-19----19b-19-16----16-|
D:---------------------------------------------------------------------19----|
A:---------------------------------------------------------------------------|
E:---------------------------------------------------------------------------|

e:------------------17b-17-17b-17-17b-17b--------15/12--15b-15-----------12--|
B:------------------------------------------12/15----------------12--15------|
G:19-16----------------------------------------------------------------------|
D:------19-17----------------------------------------------------------------|
A:------------17~------------------------------------------------------------|
E:---------------------------------------------------------------------------|

e:15-15b(18)-15---12----15b-12~--------12---------------------|
B:-------------------15---------------------15b-15-12--15b~~--|
G:---------------------------------14b------------------------|
D:------------------------------------------------------------|
A:------------------------------------------------------------|
E:------------------------------------------------------------|

outtro chorus variation "I still love you.."
e:---------------------------------------------------------------------------|
B:---------------------------------------------------------------------------|
G:------------------------------------4------------4------5/7/5------4/5/4---|
D:------------------------------------2------------2------5/7/5------4/5/4---|
A:------------------------------------2------------2------3/5/3---0--2/3/2---|
E:------------------------------------0------------0------------------------3|

e:---|
B:---|
G:--4|
D:--2|
A:--2|
E:--0|




Ваше мнение



Капча