Original version on the album Hotter Than Hell (1974)
Words and music by Paul Stanley
Beginning (Riff 1)
--------------------------------|
|-o-------------|--3--3---------------------------------|
|----2--2-------|--2--2-----------2h5p2p0--|--2--2------------------|
|-o--2--2-------|--0--0-------2h5----------|--2--2-----5h7--7-7-7--|
|----0--0----------------------|--0--0------------------|
--------------------------------|
|--------3------------------|
|--3--3--3----------------o-|
|--2--2--0-------2h5p2p0----|
|--0--0--0---2h5----------o-|
----------------|
----------------|
Verse
-------------------|
----|--3--3------------|--3--3-------------|
|----2--2-------|--2--2---------|--2--2--------|--2--2-------------|
|----2--2-------|--0--0---------|--2--2--------|--0--0-------------|
|----0--0-----------|--0--0----------------|
-------------------|
She looked hotter all dressed
good, she than in satins
looked ... hell... and lace . . .
----------------|
----|--3--3-----------------|
|----2--2-------|--2--2-----------|--2--------------|
|----2--2-------|--0--0-----------|--2--------------|
|----0--0-------------|--0--------------|
----------------|
I looked at much too I had to get
her and it was... clear... on the case . . .

|--------3------------------|
|--3--3--3------------------|
|--2--2--0-------2h5p2p0----|
|--0--0--0---2h5------------|
----------------|
----------------|

-----------|
----|--3--3------------|
|----2--2-------|--2--2---------|--2--2--------|
|----2--2-------|--0--0---------|--2--2--------|
|----0--0-----------|--0--0--------|
-----------|
I said Lady take ya home? There´s just
can I -- so much we could do . . .
|--------3------------------|
|--3--3--3------------------|
|--2--2--0-------2h5p2p0----|
|--0--0--0---2h5------------|
----------------|
----------------|

----------|--3--3-------3--3-------|
----------|--3--3-------3--3-------|
|-2--2------2--2------|--0--0-------0--0-------|
|-2--2------2--2------|--0--0-------0--0-------|
|-0--0------0--0------|--2--2-------2--2-------|
----------|--3--3-------3--3-------|
I´ll take ya all whole wide world . . .
around the . . .

------3-----------|
|--3--3--3--3--3--3-----------|
|--2--2--2--2--2--0-----2--|--(2)---------|
|--0--0--0--0--0--0-----2--|--(2)---------|
------2-----0--|--(0)---------|
------3-----------|
She blah blah blah -?-?-?- there . . .
(Never could figure these out, sorry :)
Chorus
----------------------------------|
|--14----14----14----14----|---12----12----12----12-------|
|--14----14----14----14----|---12----12----12----12-------|
|--14----14----14----14----|---12----12----12----12-------|
----------------------------------|
----------------------------------|
Hot, hot, Hotter than hell,


----------------------------------|
|--7----7----12----12-----|---14----14----14----14--------|
|--7----7----12----12-----|---14----14----14----14--------|
|--7----7----12----12-----|---14----14----14----14--------|
----------------------------------|
----------------------------------|
Ya know she´s gonna
leave ya well done . . . . (undone?)
----------------------------------|
|--14----14----14----14----|---12----12----12----12-------|
|--14----14----14----14----|---12----12----12----12-------|
|--14----14----14----14----|---12----12----12----12-------|
----------------------------------|
----------------------------------|
Hot, hot, Hotter than hell,

|----------3-------3-------------|
|---3------3------|----3-------3-------------|
|---2------0----|--2----------|----2-------0-------------|
|---0------0----|--2----------|----0-------0-------------|
|----------2----|--0-----------2-------------|
|----------3-------3-------------|
Burn ya like
the midday - sun -
This is rythm during solo
-------------------------------|
---|--3--3---------------------------------|
|---2--2-------|--2--2-----------2h5p2p0--|--2--2------------------|
|---2--2-------|--0--0-------2h5----------|--2--2-----5h7--7-7-7--|
|---0--0----------------------|--0--0------------------|
-------------------------------|
|--------3-----------------|
|--3--3--3-----------------|
|--2--2--0-------2h5p2p0---|
|--0--0--0---2h5-----------|
---------------|
---------------|
Verse 2

----------------|
---------|--3--3------------|
|----2--2------------|--2--2---------|--2--2--------|
|----2--2------------|--0--0---------|--2--2--------|
|----0--0----------------|--0--0--------|
----------------|
I asked her why Make up her She said you
she couldn´t mind . . . don´t understand . . .
|--------3------------------|
|--3--3--3------------------|
|--2--2--0-------2h5p2p0----|
|--0--0--0---2h5------------|
----------------|
----------------|
----------|--3--3-------3--3-------|
----------|--3--3-------3--3-------|
|-2--2------2--2------|--0--0-------0--0-------|
|-2--2------2--2------|--0--0-------0--0-------|
|-0--0------0--0------|--2--2-------2--2-------|
----------|--3--3-------3--3-------|
I´d love to go thing you should know . . .
but there´s one

------3-----------|
|--3--3--3--3--3--3-----------|
|--2--2--2--2--2--0-----2--|--(2)---------|
|--0--0--0--0--0--0-----2--|--(2)---------|
------2-----0--|--(0)---------|
------3-----------|
She -?-?-?- me all the way there

Do two choruses, then to the...
Guitar solo:

-----------------------------------------|
|-o--------------------------------------------------|
-----------------------------------------|
|-o--12--14--14--12--14----14-----|--12--11--9--11-----12--12----|
|----10--12--12--10--12----12-----|--10---9--7---9-----10--10----|
-----------------------------------------|
-----------------------------------|
---------------------------------o-|
-----------------------------------|
|--12--14--14--12--14----14-----|--12--11--9--/12--------o-|
|--10--12--12--10--12----12-----|--10---9--7--/10----------|
-----------------------------------|
I am sorry I don`t know solo`s.If you know it please mail me.




Ваше мнение



Капча