Kiss heavens on fire.
Tabbed by Cody Angus Co-T @ Codysmail.com.

Heavens on Fire
Performed by: Kiss
Words&Music by Paul Stanley and Desmond Child
From: Video- The Last Kiss
This is an incredibly simple song.
Tabbed By: Cody Angus [email protected]

Rhy. Fig.1
-3---3-3--3--------3----------------------------------
-3---3-3--3--------0---------------------------------
-0---0-0--0--------0--------------------------------
-0---0-0--0--5-5--0-----------------------------------
-2---2-2--2--7-7--2-----------------------------------
-3---3-3--3--------3-------------------------------
Rhy. Fig 2
------------------------------------------------
------------------------------------------------
------------------------------------------------
-5--7---------------------------------------------
-3--3--------------------------------------------
-------------------------------------------------
Ride Chord as per recording
Rhy Fig 3
------------------------------------------------
------------------------------------------------
------------------------------------------------
------------------------------------------------
-5-8-5--5-8-5---------------------------------
-3-6-3--3-6-3---------------------------------
Rhy Fig 4
-----------------------------------------------
--------------------------------------------
------------------------------------------------
-----------------------------------------------
--7-9.......---9.12..----------------------------------------
--5-5.......---7...7.----------------------------------------
Ride chord as per recording
Rhy Fig 5
---------------------------------------------------
-----------------------------------------------------
------------------------------------------------------
----------------------------------------------------
-5--8--5----5-8-10-----10-8-10---10--8--5---------
-3--6--3----3-6--8------8--6--8-----8--6--3-------
Rhy Fig 6
------------------------------------------------
------------------------------------------------
------------------------------------------------
-5-----3------3------3-------3------3-----------------
-3-----1------1p0---1p0----1p0---1p0----------------
--------------------3------3-------3--------3---
Solo
E|-------------8-------------10------8----------------|
B|---------------10-10-10/12----10-----10-------------|
G|-10---------------9--9-/11--------------------------|
D|-10---10---------------------------------5-5-------|
A|-8----10---------------------------------5-5-------|
E|-------8----------------------------------3-3-------|

E|-8-------------10------8------10-10-10--------------|
B|---10-10-10/12----10-----10---10-10-10--------------|
G|------9--9-/11--------------------------------------|
D|----------------------------------------------------|
A|----------------------------------------------------|
E|----------------------------------------------------|
Heaven's on fire
Rhy Fig 1
I look at you and my blood boils hot,
I feel my temperature rise
I want it all, gimme what you've got
There's Hunger in your eyes
Rhy.Fig 2
I'm Comin' closer baby hear me breathe
Rhy. Fig 3
Hhhha, Hhhha, Hhhha
Rhy. Fig 2
Ya Know the way to give me what I need
Rhy Fig 4
Just Let me love ya and you'll never leave!
Rhy. Fig 5
Feel my heat, takin' you higher, burn with me
Heavens on fire
Rhy. Fig 5
Paint the sky, with desire, angels fly heavens on fire
Rhy Fig. 1
I gotta feaver achin' in my heart
Ya make me shiver and shake
Baby dont stop, take it to the top
Eat it like a peice of cake
Rhy fig 2
Your Gettin' closer I can hear you breathe
Rhy. Fig 3
Hhhhha, Hhhha
Rhy Fig 2
You drive me crazy when you start to tease
Rhy Fig 4
Baby you can bring the devil to his knees
Rhy. Fig 5
Feel my heat, takin' you higher, burn with me
Heavens on fire
Rhy. Fig 5
Paint the sky, with desire, angels fly heavens on fire
Rhy Fig 6
Oh Heavens on fire
Rhy Fig 6
Oh Heavens on fire...Oh
SOLO
Rhy.Fig 2
I'm Comin' closer baby hear me breathe
Rhy. Fig 3
Hhhha, Hhhha, Hhhha
Rhy. Fig 2
Ya Know the way to give me what I need
Rhy Fig 4
Just Let me love ya and you'll never leave!
Rhy. Fig 5
Feel my heat, takin' you higher, burn with me
Heavens on fire
Rhy. Fig 5
Paint the sky, with desire, angels fly heavens on fire




Ваше мнение



Капча