Rhythm Fig. 1 (Acoustic)
Eb|-2--------2------6---------4------------------------|
Bb|-2---4----2------6----7----4----4-------------------|
Gb|-3---6----3------6----9----5----6-------------------|
Db|-4---6----4------8----9----6----6-------------------|
Ab|-4---4----4------8----7----6----4-------------------|
Eb|-2--------2------6---------4------------------------|

Rhythm Fig. 2 (Acoustic)
Eb|-2--------2------6---------4------------------------|
Bb|-2---4----2------6----7----4----4-------------------|
Gb|-3---6----3------6----9----5----6-------------------|
Db|-4---6----4------8----9----6----6-------------------|
Ab|-4---4----4------8----7----6----4-------------------|
Eb|-2--------2------6---------4------------------------|


Rhythm Fig. 3 (Dist. Electric)
Eb|----------------------------------------------------|
Bb|----------------------------------------------------|
Gb|--6---4---2----9---2---9-9/11-11--4-6---------------|
Db|--6---4---2----9---2---9-9/11-11--4-4-6-6-6-6-6-6-6-|
Ab|--4---2---0----7---0---7-7/9--9---2---4-4-4-4-4-4-4-|
Eb|---------------0-------0----------------------------|

Rhythm Fig. 3a (Dist. Electric)
Eb|----------------------------------------------------|
Bb|----------------------------------------------------|
Gb|--6---4---2----9---2---9-9/11-11--4-6---------------|
Db|--6---4---2----9---2---9-9/11-11--4-4-6-6-6-6-6-6-6-|
Ab|--4---2---0----7---0---7-7/9--9---2---4-4-4-4-4-4-4-|
Eb|---------------0-------0----------------------------|
Eb|----------------------------------------------------|
Bb|-9-9--9-9-9-----------------------------------------|
Gb|-8-8--8-8-8-----------------------------------------|
Db|-6-6--6-6-6-----------------------------------------|
Ab|----------------------------------------------------|
Eb|----------------------------------------------------|
Rhythm Fig. 3b (Dist. Electric)
Eb|----------------------------------------------------|
Bb|----------------------------------------------------|
Gb|-----2-------9-2-------9-9/11-11--4-6---------------|
Db|-----2-------9-2-------9-9/11-11--4-4-6-6-6-6-6-6-6-|
Ab|--0*-0-------7-0-------7-7/9--9---2---4-4-4-4-4-4-4-|
Eb|-------5-4-2-0---5-4-2-0----------------------------|
*Volume Swell
Eb|----------------------------------------------------|
Bb|-9-9--9-9-9-----------------------------------------|
Gb|-8-8--8-8-8-----------------------------------------|
Db|-6-6--6-6-6-----------------------------------------|
Ab|----------------------------------------------------|
Eb|----------------------------------------------------|
Rhythm Fig. 4 (Dist. Electric)
Eb|----------------------------------------------------|
Bb|----------------------------------------------------|
Gb|-2------2----------------9---9----------------------|
Db|-2------2-----4-----2----9---9----------------------|
Ab|-0------------4-----2----7---7---------------0-2----|
Eb|--------4-----2-----0----0---0--5-4-2--0-2-4-----4--|
Eb|----------------------------------------------------|
Bb|----------------------------------------------------|
Gb|-2------2----------------9---9----------------------|
Db|-2------2-----4-----2----9---9----------------------|
Ab|-0------------4-----2----7---7-----------0-2/4------|
Eb|--------4-----2-----0----0---0--5-4-2-0-------------|
Rhythm Fig. 4 (Dist. Electric)
Eb|----------------------------------------------------|
Bb|----------------------------------------------------|
Gb|-2------2----------------9---9----------------------|
Db|-2------2-----4-----2----9---9----------------------|
Ab|-0------------4-----2----7---7---------------0-2----|
Eb|--------4-----2-----0----0---0--5-4-2--0-2-4-----4--|


Eb|----------------------------------------------------|
Bb|----------------------------------------------------|
Gb|-2------2----------------9---9----------------------|
Db|-2------2-----4-----2----9---9----------------------|
Ab|-0------------4-----2----7---7-----------0-2/4------|
Eb|--------4-----2-----0----0---0--5-4-2-0-------------|
Rhythm Fig. 4b (Dist. Electric)
Eb|----------------------------------------------------|
Bb|----------------------------------------------------|
Gb|-2------2----------------9---9----------------------|
Db|-2------2-----4-----2----9---9----------------------|
Ab|-0------------4-----2----7---7---------------0-2----|
Eb|--------4-----2-----0----0---0--5-4-2--0-2-4-----4--|
Riff. 1
Eb|----------------------------------------------------|
Bb|---------------14~-----------------19-21------------|
Gb|--15~---13~----------16--15--18-----------18~-------|
Db|----------------------------------------------------|
Ab|----------------------------------------------------|
Eb|----------------------------------------------------|
[Rhythm Fig. 1] w/[Riff. 1]
[Rhythm Fig. 2]
You're sitting in your seat
And then you stand and clutch your breast
Our music drives you wild along with the rest
[Rhythm Fig. 3]
You watch me singing this song
You see what my mouth can do
And you wish you were the one I was doing it to
And you watch me playing guitar
And you feel what my fingers can do
And you wish you were the one I was doing it to
Well, listen
[Rhythm Fig. 4]
You've got great expectations
You've got great expectations
[Rhythm Fig. 2]
You're dying to be seen
And you wave and call my name
But in the day it seems that I'm a million miles away
[Rhythm Fig. 3a]
You watch me beating my drum
And you know what my hands can do
And you wish you were the one I was doing it to
Well, listen
[Rhythm Fig. 4a]
You've got great expectations
You've got great expectations
You've got great expectations
[Rhythm Fig. 1] w/[Riff. 1]
[Rhythm Fig. 3b]
Then you feel these eyes from the stage
And you see me staring at you
And you hear between the lines, my voice is calling to you
Well, listen
[Rhythm Fig. 4b] (Until Fade)
You've got great expectations
You've got great expectations
You've got great expectations, do you want to play the role
You've got great expectations; you'd even sell me your soul
You've got great expectations
You've got great expectations
You've got great expectations, do you want to play the role
You've got great expectations; you'd even sell me your soul
You've got great expectations, as long as you can play the role
You've got great expectations




Ваше мнение



Капча