Received: from violet.berkeley.edu (violet.Berkeley.EDU [128.32.155.22]) by post-office.nevada.edu (8.6.4/8.6.4) with ESMTP id TAA25460 for ; Mon, 28 Feb 1994 19:15:05 -0800
Received: from DialupEudora by violet.berkeley.edu (8.6.4/1.33r)
id TAA09774; Mon, 28 Feb 1994 19:14:59 -0800
Date: Mon, 28 Feb 1994 19:14:59 -0800
Message-Id:
To: [email protected]
From: [email protected] (Rob Schenk)
Subject: Tab: Kiss "Every Time I Look At You"
EVERY TIME I LOOK AT YOU (KISS, 1992, Revenge)
----------------------------------------------
Transcribed in the heat of the night by FREDDI HOMBERG [05-03-93]
-----------------------------------------------------------------
[email protected]
The original song is played on a 12-string GUILD, that is tuned a little
bit higher than the standard tuning is.
So the best way to enjoy playing this song is to listen to the original
before you grap for the guitar.
NOTES: HO = HAMMER ON
PO = PULL OFF
-----------------------------------------------------------------
INTRO: Repeat 2 times
E--3--3-----2--3--2--
B--3--3--3--3--3--3--
G-----------------2--
D--------2-----------
A--2--2--3--3--2-----
E--------------------
VERSE:
E--3--3--3--3--3--3--3--3--3--3--3--3--3--3--3--3--3--3--3----
B--3--3--3--3--3--3--3--3--3--3--3--3--3--3--3--3--3--3--3----
G-------------------------------------------------------------
D-------------------------------------------------------------
A-------------------------------------------------------------
E--2--2--2--2--2--2--2--2--2--2--2--2--2--2--2--2--2--2--2----
Tryin'to say I'm sorry didn't mean to break your heart
HO
E--3--3--3--3--3--3--3--3--3--3--3--3--3--3--0--0--0--0-------
B--3--3--3--3--3--3--3--3--3--3--3--3--3--3--1--1--1--1-------
G--2--2--2--2--2--2--2--2--2--2--2--2--2--2--0--0--0--0------0
D--3--3--3--3--3--3--3--3--3--3--3--3--3--3--2--2--2--2--0-2--
A--------------------------------------------3--3--3--3-------
E-------------------------------------------------------------
And find you waiting up by the light of day
E--3--3--3--3--3--3--3--3--3--3--3--2--2--2--2--2--2--2--2--2--2--2
B--3--3--3--3--3--3--3--3--3--3--3--3--3--3--3--3--3--3--3--3--3--3
G--2--2--2--2--2--2--2--2--2--2--2--4--4--4--4--4--4--4--4--4--4--4
D--3--3--3--3--3--3--3--3--3--3--3--4--4--4--4--4--4--4--4--4--4--4
A-----------------------------------2--2--2--2--2--2--2--2--2--2--2
E------------------------------------------------------------------
There's a lot I want to tell you - but I don't know where to start
E--3--3--3--3--3--3--3--3--3--3--3--3--3--3---0--0--0--0--0--------
B--3--3--3--3--3--3--3--3--3--3--3--3--3--3---1--1--1--1--1--------
G--2--2--2--2--2--2--2--2--2--2--2--2--2--2---0--0--0--0--0--------
D--3--3--3--3--3--3--3--3--3--3--3--3--3--3---2--2--2--2--2--------
A---------------------------------------------3--3--3--3--3--------
E------------------------------------------------------------------
And I don't know what I'd do if you walked away
E------------------0--0--0--0--0--0--0--0--0--2--2--2--2--3--2--0--2
B---------------1--1--1--1--1--1--1--1--1--1--3--3--3--3--3--3--3--3
G------0-----0--2--2--2--2--2--2--2--2--2--2--2--2--2--2--2--2--2--2
D----2-----0----2--2--2--2--2--2--2--2--2--2--0--0-----------0------
A--3-----2------------------------------------0--0-----------0------
E-------------------------------------------------------------------
Ooh, baby I know I hurt you
E----------------------------3--
B---1--1--1--1--1--1--1--1---2--
G---2--2--2--2--2--2--2--2---3--
D---2--2--2--2--2--2--2--2---0--
A---0--0--0--0--0--0--0--0---0--
E-------------------------------
I just got lost along the way
CHORUS: But every time I look at you { The Chords for this }
No matter what I'm goin' through { part of the chorus }
It's easy to see { are the ones of the Intro }
[D] [Em]
And every time I hold you
[D] [G]
the things I never told you
[D]
Seem to come easily
[G]
'cause you're everything to me
VERSE 2: I never really wanted
to let you get inside my heart
I wanted to believe this would soon be ending
I thought it wouldn't matter
If it all just came apart
But, now I realize I was just pretending
BRIDGE 2: Ooh, baby I know I hurt you
but you can still believe in me
CHORUS
VERSE 3: It's gonna take a little time to show you
just what you mean to me, oh yeah
it seems the more I get to know you
the more I needed to make you see, you're everything to me, yeah
BRIDGE 2
CHORUS




Ваше мнение



Капча