Dreamin' by Kiss
tuning is one half step down
h=hammer on
p=pull off
tabbed by mj transcribed by tom
-----------------------------------------
-----------------------------------------
-4-4-4-4-4h5-4-2h4p2-----0---------------
-2-2-2-2-2---2---------2-----0---0-------
---------------------3-------------------
---------------------------3---2---------
G D
----------------------------2--2------------
----------------------------2--3------------
-4-4-4-4-4h5-4-2h4p2-----0--0--2------------
-2-2-2-2-2---2---------2----0--0------------
---------------------3------2--0------------
----------------------------3---------------
------------------------------------------
------------------------------------------
-4-4-4-4-4h5-4-2h4p2-----0----------------
-2-2-2-2-2---2---------2------0---0-------
---------------------3--------------------
----------------------------3---2---------
-------------------------------------------
-------------------------------------------
-4-4-4-4-4h5-4-2h4p2-----0------0----------
-2-2-2-2-2---2---------2------4------------
---------------------3------5--------------
-------------------------------------------
verse
-10----------10----------8----------8-------8-----6-------5--------
----11----11----11----11---11----11---10------8-----6---6---6---6--
-------12----------12---------10---------10-----9-----7-------5----
-------------------------------------------------------------------
-------------------------------------------------------------------
-------------------------------------------------------------------




Ваше мнение



Капча