From: [email protected] (Rob Schenk)
Subject: Tab: Kiss "Domino"

Domino

by Kiss

regular tuning

intro

----------------------------------------
-5--5-----3--3-----5b----------5b------------
-2--2-2--2--2--2--2----2--2--5----2--0--2--
----------------------------------------
----------------------------------------
----------------------------------------

rhythm/chorus

----------------------------------------
----------3------------------------------
----------2------------------------------
----------0------------------------------
--3b-0------3b--0--0-0--3b-0------
--------------------------------------3b--

----------------------------------------
---------3-------------------------------
-2------2---------------------------------
-2---2-0-----------------------------------
-0---0------3b-0-0-0-------------------
--------------------------0-2-3-5v-------

verses

----------------------------------------
----------------------------------------
--------------------------2------2--------
--------------------------2------2--------
-0-(12 times)--3b--0------0--------
------------------------------3----------

----------------------------------------
----------------------------------------
----------------------------------------
----------------------------------------
-0-(12 X)------------------------------
--------------0--2--3--5v---------------

prechorus

-3--3--3--2---------------------------------
-3--3--3--3---------------------------------
-0--0--0--2---2-------------2--------------
-0--0--0--0---2-------------2--------------
-2--2--2-------0--3p0-----0----------------
-3--3--3------------------3-----------------

-3--2--0-----------------------------------
-3--3--0-----------------------------------
-0--2--1-----------------------------------
-0--0--2-----------------------------------
-2------2---------------------------------
-3------0---------------------------------

----------------------------------------
----------------------------------------
-9------7--------4--------2-------3-------3--
-9------7--------4--------2-------0-------2-
-7------5--------2--------0-------0-------0-
-0-0-0----0-0------0-0-----0-0----0-0-----




Ваше мнение



Капча