Do You Love me by Kiss
Standard Tuning

G:----------|----------|----------|----------|
D:6---------|6---------|6---------|6---------|
A:-----6----|-----6----|-----4----|-----6----|
E:----------|----------|----------|----------|

G:----------|----------|----------|----------|
D:----------|----------|----------|----------|
A:--1----1-1|--1----1-1|--1----1-1|----------|
E:1----1----|1----1----|1----1----|1-44-2-1-0|

G:----------|----------|----------|----------|
D:----------|----------|----------|----------|
A:--1----1-1|--1----1-1|--1----1-1|--1----1-1|
E:1----1----|1----1----|1----1----|1----1----|

G:----------|----------|----------|----------|
D:6---------|6---------|6---------|6---------|
A:-----6----|-----6----|-----4----|-----6----|
E:----------|----------|----------|----------|

G:----------|----------|----------|----------|
D:----------|----------|----------|----------|
A:--1----1-1|--1----1-1|--1----1-1|----------|
E:1----1----|1----1----|1----1----|1-44-2-1-0|

G:----------|----------|----------|----------|
D:----------|----------|----------|----------|
A:--1----1-1|--1----1-1|--1----1-1|--1----1-1|
E:1----1----|1----1----|1----1----|1----1----|

G:----------|----------|----------|----------|
D:6---------|6---------|6---------|6---------|
A:-----6----|-----6----|-----4----|-----6----|
E:----------|----------|----------|----------|

(During Solo)
G:----------|
D:----------|
A:1--------1|
E:------1---|

G:----------|----------|----------|----------|
D:---------3|---------3|---------3|----------|
A:---1------|----------|----------|1---------|
E:1---------|1--1------|1--1------|-----1----|

G:----------|----------|----------|----------|
D:---------3|---------3|---------3|----------|
A:---1------|----------|----------|-----1----|
E:1---------|1--1------|1--1------|1---------|

G:---------5|---------5|---------5|
D:----------|----------|----------|
A:3--3------|3--3------|---3------|
E:----------|----------|----------|

G:---------5|---------5|----------|
D:----------|----------|----------|
A:3--3------|---3------|----------|
E:----------|----------| 111111-4|

G:----------|----------|----------|----------|
D:6---------|6---------|6---------|6---------| x6
A:-----6----|-----6----|-----4----|-----6----| (the song then
E:----------|----------|----------|----------| fades out)

Thanks, please rate it after you learn it.
Tabbed by:
_TheBassist01_




Ваше мнение



Капча