Kiss – Detroit Rock City
Guitar/vocals - Paul Stanley
LeedGuitar – Ace Frehly
Bass – Gene Simmons
Drums – Peter Criss
Tabed By Adam Mattsson (SWEDEN)
I Wanted This Tab For Regular Tuning So Here It Is........
Intro
Guitar1
E--------------------------------------------------------------------|
B--------------------------------------------------------------------|
G--------------------------------------------------------------------|
D--------------------------------------------------------------------|
A----3------1-------3-------1------3-------1-------3-------1-------3-|
E--------------------------------------------------------------------|
Then Guitar Two Comes In
E--------------------------------------------------------------------|
B--------------------------------------------------------------------|
G--------------------------------------------------------------------|
D---5-------3-------5-------3-------5-------3-------5------3-------5-|
A--------------------------------------------------------------------|
E--------------------------------------------------------------------|
Riff 1
E-----------------------------------------------------------------|
B-----------------------------------------------------------------|
G-----------------------------------------------------------------|
D-----------------------------------------------------------------|
A---------8--------------6---------------10-------------8---------|
E----6---------------4---------------8---------------6------------|
Then It Is Guitar One And Two Intro Again And Then It Is Riff 1 And Thats The Intro

Riff 2 Vers 1 Two Times
E--------------------------------------------------------------------------------|
B--------------------------------------------------------------------------------|
G--------------------------------------------------------------------------------|
D-----------------------------8-------------------------10-----------------------|
A--------10--------------6---------------8--------8----------------10------------|
E----8--------------------------------6--------------------------8---------------|
And By The –Get Up Everyb............. Riff 1 One Time
Riff 3 Chorus
E---------------------------------------------------------------------------|
B---------------------------------------------------------------------------|
G---------------------------------------------------------------------------|
D--------------------------------------1------------------------------------|
A-----3-----3-1-1----3-----3-1-3---------3-----1--3---1--3------------------|
E---------------------------------------------------------------------------|
Riff 1
E-----------------------------------------------------------------|
B-----------------------------------------------------------------|
G-----------------------------------------------------------------|
D-----------------------------------------------------------------|
A---------8--------------6---------------10-------------8---------|
E----6---------------4---------------8---------------6------------|
And This Is Vers 1 Chorus .
Riff 2 Vers2 Two Times
E--------------------------------------------------------------------------------|
B--------------------------------------------------------------------------------|
G--------------------------------------------------------------------------------|
D-----------------------------8-------------------------10-----------------------|
A--------10--------------6---------------8--------8----------------10------------|
E----8--------------------------------6--------------------------8---------------|
And Then The Same Chorus Exept Riff 3 Chorus Witch Is Two Times And It Ends On
Riff 3 Chorus
E---------------------------------------------------------------------------|
B---------------------------------------------------------------------------|
G---------------------------------------------------------------------------|
D--------------------------------------1------------------------------------|
A-----3-----3-1-1----3-----3-1-3---------3----------------------------------|
E---------------------------------------------------------------------------|
And Then This Little Riff
Riff 4
E-------------------------------------------------------------------------------------------|
B-------------------------------------------------------------------------------------------|
G-------------------------------------------------------------------------------------------|
D-----------------------------------------------3-----------------------------------------3-|
A---5----5---3---3---5-------5----3----5-----------5----3--5---3---5- 5---3---5-----------|
E-------------------------------------------------------------------------------------------|
Riff 1
E-----------------------------------------------------------------|
B-----------------------------------------------------------------|
G-----------------------------------------------------------------|
D-----------------------------------------------------------------|
A---------8--------------6---------------10-------------8---------|
E----6---------------4---------------8---------------6------------|
Riff 2 Vers 3 Two Times
E--------------------------------------------------------------------------------|
B--------------------------------------------------------------------------------|
G--------------------------------------------------------------------------------|
D-----------------------------8-------------------------10-----------------------|
A--------10--------------6---------------8--------8----------------10------------|
E----8--------------------------------6--------------------------8---------------|
Riff 1
E-----------------------------------------------------------------|
B-----------------------------------------------------------------|
G-----------------------------------------------------------------|
D-----------------------------------------------------------------|
A---------8--------------6---------------10-------------8---------|
E----6---------------4---------------8---------------6------------|
And Now The Solo I do Not No The Whole Solo Yet But I Will Figured It Out Soon
E---------------10----8------11--10--8----11--10--8---------------10--11--10---------------
B--8-----11--------------------------------------------------11--11-----------------11---9-
G------------------------------------------------------------------------------------------
D------------------------------------------------------------------------------------------
A------------------------------------------------------------------------------------------
E------------------------------------------------------------------------------------------

E-------------------------------------------------------|
B---8----9--9---13---11---9---13---11---9---8-----------|
G-------------------------------------------------------|
D-------------------------------------------------------|
A-------------------------------------------------------|
E-------------------------------------------------------|
Rff 2 Vers 4 Two Times
E-----------------------------------------------------------------------------|
B-----------------------------------------------------------------------------|
G-----------------------------------------------------------------------------|
D-----------------------------8-------------------------10--------------------|
A--------10--------------6---------------8--------8----------------10---------|
E----8--------------------------------6--------------------------8------------|
Riff 1
E--------------------------------------------------------------|
B--------------------------------------------------------------|
G--------------------------------------------------------------|
D--------------------------------------------------------------|
A---------8--------------6---------------10-------------8------|
E----6---------------4---------------8---------------6---------|
---------------------------Silence-------------------------------
Riff 1
E--------------------------------------------------------------|
B--------------------------------------------------------------|
G--------------------------------------------------------------|
D--------------------------------------------------------------|
A---------8--------------6---------------10-------------8------|
E----6---------------4---------------8---------------6---------|
Kiss Greatest Band Facking 4-Ever Ace Rocks!!!!




Ваше мнение



Капча