From: M C Vic Naughty
Subject: TAB: Comin' Home by KISS
Date: Mon, 4 Dec 1995 16:46:31 -0500 (EST)
This is a supplement/replacement for the version already at OLGA. I
tabbed the studio version.
Comin' Home - by KISS
Originally recorded on the album Hotter Than Hell (1974)
Words and Music by Paul Stanley
Transcribed by Mark Vignati ([email protected])
Tune guitars down 1/2 step (to Eb)
The letters above the staff are time values for notes
w=whole note, q=quarter, e=eighth, etc.
Rests are noted with an 'r' after the note value of the rest.
Intro: (both guitars)
s s q e e e e er e (q) e e e e e s s
------||---------------------|-----------------------|
------||o--------------------|-----------------------|
------||--------------5------|------------------5-5--|
--5-5-||o--5---5-5-5--5----5-|--(5)--5-5-5-5-5--5-5--|
--5-5-||---5---5-5-5--3----5-|--(5)--5-5-5-5-5--3-3--|
--3-5-||---3---3-3-3-------3-|--(3)--3-3-3-3-3-------|
_____________________
/ 1.
q e e e e er e (q) e e e e e s s
|----------------------|---------------------------||
|-------------8--------|-------------------------o-||
|--5---5-5-5--7------7-|--(7)--7-7-7-7-7-----------||
|--5---5-5-5--5------7-|--(7)--7-7-7-7-7----5-5--o-||
|--3---3-3-3---------5-|--(5)--5-5-5-5-5----5-5----||
|----------------------|--------------------3-3----||
________________
/ 2.
(q) e e e e e e q h.r
|-------------------|------------------|
|-------------------|------------------|
|-(7)--7-7-7-7-7-7--|--7\--------------|
|-(7)--7-7-7-7-7-7--|--7\--------------|
|-(5)--5-5-5-5-5-5--|--5\--------------|
|-------------------|------------------|
It's been a
Verse 1
e e e e e e e e e e e e e e e s s
|------------------|---------------------|
|------------------|---------------------|
|------------------|----------------5-5--|
|-5-5-5-5-5-5-5-5--|--5-5-5-5-5-5-5-5-5--|
|-5-5-5-5-5-5-5-5--|--5-5-5-5-5-5-5-3-3--|
|-3-3-3-3-3-3-3-3--|--3-3-3-3-3-3-3------|
month or two since
I was sleepin' with you -- I'm comin'
q e e e e er e (q) e e e e e s s
|---------------------|-------------------------|
|-------------8-------|-------------------------|
|--5---5-5-5--7-----7-|--(7)--7-7-7-7-7---------|
|--5---5-5-5--5-----7-|--(7)--7-7-7-7-7----5-5--|
|--3---3-3-3--------5-|--(5)--5-5-5-5-5----5-5--|
|---------------------|--------------------3-3--|
home again ---- I been to
e e e e e e e e e e e e e e e s s
|------------------|---------------------|
|------------------|---------------------|
|------------------|----------------5-5--|
|-5-5-5-5-5-5-5-5--|--5-5-5-5-5-5-5-5-5--|
|-5-5-5-5-5-5-5-5--|--5-5-5-5-5-5-5-3-3--|
|-3-3-3-3-3-3-3-3--|--3-3-3-3-3-3-3------|
east and west, but baby
I like best the road that
q e e e e er e (e) e e e e e er e
|---------------------|-------------------------|
|-------------8-------|----------------6--------|
|--5---5-5-5--7-----7-|--(7)--7-7-7-7--5-----5--|
|--5---5-5-5--5-----7-|--(7)--7-7-7-7--3-----5--|
|--3---3-3-3--------5-|--(5)--5-5-5-5--------3--|
|---------------------|-------------------------|
leads to you ---- Oh girl ---
Bridge
(e) e e e e e er e er e er e er e er e
|-----------------------|-------------------------|
|---------------6-------|-----6-----------8-------|
|-(5)--5-5-5-5--5----5--|-----5-----5-----7----7--|
|-(5)--5-5-5-5--3----5--|-----3-----5-----5----7--|
|-(3)--3-3-3-3-------3--|-----------3----------5--|
|-----------------------|-------------------------|
It seems the whole wide world ---
(e) e e e e e e e q h.r
|---------------------|----------------------|
|---------------------|----------------------|
|-(7)--7-7-7-7-7-7-7--|--7\------------------|
|-(7)--7-7-7-7-7-7-7--|--7\------------------|
|-(5)--5-5-5-5-5-5-5--|--5\------------------|
|---------------------|----------------------|
Stays the same. Hotels they
Verse 2
e e e e e e e e e e e e e e e s s
|------------------|---------------------|
|------------------|---------------------|
|------------------|----------------5-5--|
|-5-5-5-5-5-5-5-5--|--5-5-5-5-5-5-5-5-5--|
|-5-5-5-5-5-5-5-5--|--5-5-5-5-5-5-5-3-3--|
|-3-3-3-3-3-3-3-3--|--3-3-3-3-3-3-3------|
all look the same
they always drive me insane but I can't
q e e e e er e (q) e e e e e s s
|--------------------|-------------------------|
|-------------8------|-------------------------|
|--5---5-5-5--7----7-|--(7)--7-7-7-7-7---------|
|--5---5-5-5--5----7-|--(7)--7-7-7-7-7----5-5--|
|--3---3-3-3-------5-|--(5)--5-5-5-5-5----5-5--|
|--------------------|--------------------3-3--|
get away --- Until I
e e e e e e e e e e e e e e e s s
|------------------|---------------------|
|------------------|---------------------|
|------------------|----------------5-5--|
|-5-5-5-5-5-5-5-5--|--5-5-5-5-5-5-5-5-5--|
|-5-5-5-5-5-5-5-5--|--5-5-5-5-5-5-5-3-3--|
|-3-3-3-3-3-3-3-3--|--3-3-3-3-3-3-3------|
receive the call that
tells me that'll be all and then I'll
q e e e e er e (e) e e e e e er e
|---------------------|-------------------------|
|-------------8-------|----------------6--------|
|--5---5-5-5--7-----7-|--(7)--7-7-7-7--5-----5--|
|--5---5-5-5--5-----7-|--(7)--7-7-7-7--3-----5--|
|--3---3-3-3--------5-|--(5)--5-5-5-5--------3--|
|---------------------|-------------------------|
hop a plane --- It's true ---
Bridge
(e) e e e e e er e er e er e er e er e
|-----------------------|-------------------------|
|---------------6-------|-----6-----------8-------|
|-(5)--5-5-5-5--5----5--|-----5-----5-----7----7--|
|-(5)--5-5-5-5--3----5--|-----3-----5-----5----7--|
|-(3)--3-3-3-3-------3--|-----------3----------5--|
|-----------------------|-------------------------|
I'm not sure if you knew
(e) e e e e e e e q
|---------------------|----------------------|
|---------------------|----------------------|
|-(7)--7-7-7-7-7-7-7--|--7\------------------|
|-(7)--7-7-7-7-7-7-7--|--7\------------------|
|-(5)--5-5-5-5-5-5-5--|--5\------------------|
|---------------------|----------------------|
I'm comin' home to you ----
Interlude
(only one guitar plays arpeggios;
the other only plays the descending bass line)
e e e e e e e e e e e e e e e e
|--------3-------3-----|-----3---------3---------|
|-o----3---3---3---3---|---3---3-----3---3-------|
|----------------------|-------------------------|
|-o--------------------|-----------0-------------|
|----------------------|-------------------------|
|----3-------2---------|-0-----------------------|
__________________
/ 1-3
q e e e e er e (q) e e e e e e e
|---------------------|------------------------||
|-------------8-------|----------------------o-||
|--5---5-5-5--7-----7-|--(7)--7-7-7-7-7-7-7----||
|--5---5-5-5--5-----7-|--(7)--7-7-7-7-7-7-7--o-||
|--3---3-3-3--------5-|--(5)--5-5-5-5-5-5-5----||
|---------------------|------------------------||
____________________
/ 4
q e e e e er e (e) e e e e e er e
|---------------------|-------------------------|
|-------------8-------|----------------6--------|
|--5---5-5-5--7-----7-|--(7)--7-7-7-7--5-----5--|
|--5---5-5-5--5-----7-|--(7)--7-7-7-7--3-----5--|
|--3---3-3-3--------5-|--(5)--5-5-5-5--------3--|
|---------------------|-------------------------|
Oh girl ----
Bridge
(e) e e e e e er e er e er e er e er e
|-----------------------|-------------------------|
|---------------6-------|-----6-----------8-------|
|-(5)--5-5-5-5--5----5--|-----5-----5-----7----7--|
|-(5)--5-5-5-5--3----5--|-----3-----5-----5----7--|
|-(3)--3-3-3-3-------3--|-----------3----------5--|
|-----------------------|-------------------------|
It seems the whole wide world ---
(e) e e e e e e e q
|---------------------|----------------------|
|---------------------|----------------------|
|-(7)--7-7-7-7-7-7-7--|--7\------------------|
|-(7)--7-7-7-7-7-7-7--|--7\------------------|
|-(5)--5-5-5-5-5-5-5--|--5\------------------|
|---------------------|----------------------|
Stays the same. Hotels they
Verse 3
e e e e e e e e e e e e e e e s s
|------------------|---------------------|
|------------------|---------------------|
|------------------|----------------5-5--|
|-5-5-5-5-5-5-5-5--|--5-5-5-5-5-5-5-5-5--|
|-5-5-5-5-5-5-5-5--|--5-5-5-5-5-5-5-3-3--|
|-3-3-3-3-3-3-3-3--|--3-3-3-3-3-3-3------|
all look the same
they always drive me insane but I can't
q e e e e er e (q) e e e e e s s
|---------------------|-------------------------|
|-------------8-------|-------------------------|
|--5---5-5-5--7-----7-|--(7)--7-7-7-7-7---------|
|--5---5-5-5--5-----7-|--(7)--7-7-7-7-7----5-5--|
|--3---3-3-3--------5-|--(5)--5-5-5-5-5----5-5--|
|---------------------|--------------------3-3--|
get away --- Until I
e e e e e e e e e e e e e e e s s
|------------------|---------------------|
|------------------|---------------------|
|------------------|----------------5-5--|
|-5-5-5-5-5-5-5-5--|--5-5-5-5-5-5-5-5-5--|
|-5-5-5-5-5-5-5-5--|--5-5-5-5-5-5-5-3-3--|
|-3-3-3-3-3-3-3-3--|--3-3-3-3-3-3-3------|
receive the call that
tells me that'll be all and then I'll
q e e e e er e (e) e e e e e er e
|---------------------|-------------------------|
|-------------8-------|----------------6--------|
|--5---5-5-5--7-----7-|--(7)--7-7-7-7--5-----5--|
|--5---5-5-5--5-----7-|--(7)--7-7-7-7--3-----5--|
|--3---3-3-3--------5-|--(5)--5-5-5-5--------3--|
|---------------------|-------------------------|
hop a plane --- It's true ---
Bridge
(e) e e e e e er e er e er e er e er e
|-----------------------|-------------------------|
|---------------6-------|-----6-----------8-------|
|-(5)--5-5-5-5--5----5--|-----5-----5-----7----7--|
|-(5)--5-5-5-5--3----5--|-----3-----5-----5----7--|
|-(3)--3-3-3-3-------3--|-----------3----------5--|
|-----------------------|-------------------------|
I'm not sure if you knew
(e) e e e e e e e q
|---------------------|----------------------|
|---------------------|----------------------|
|-(7)--7-7-7-7-7-7-7--|--7\------------------|
|-(7)--7-7-7-7-7-7-7--|--7\------------------|
|-(5)--5-5-5-5-5-5-5--|--5\------------------|
|---------------------|----------------------|
I'm comin' home to you ----
Interlude
e e e e e e e e e e e e e e e e
|--------3-------3-----|-----3---------3---------|
|-o----3---3---3---3---|---3---3-----3---3-------|
|----------------------|-------------------------|
|-o--------------------|-----------0-------------|
|----------------------|-------------------------|
|----3-------2---------|-0-----------------------|
__________________
/ 1-2
q e e e e er e (q) e e e e e e e
|--------------------|------------------------||
|-------------8------|----------------------o-||
|--5---5-5-5--7----7-|--(7)--7-7-7-7-7-7-7----||
|--5---5-5-5--5----7-|--(7)--7-7-7-7-7-7-7--o-||
|--3---3-3-3-------5-|--(5)--5-5-5-5-5-5-5----||
|--------------------|------------------------||
I'm comin' home to you ---
__________________
/ 3
q e e e e er e (q) e e e e e e e
|---------------------|----------------------|
|-------------8-------|----------------------|
|--5---5-5-5--7-----7-|--(7)--7-7-7-7-7-7-7--|
|--5---5-5-5--5-----7-|--(7)--7-7-7-7-7-7-7--|
|--3---3-3-3--------5-|--(5)--5-5-5-5-5-5-5--|
|---------------------|----------------------|
I'm comin' home baby!
e e e e e e e e e e e e e e e e
|-------5---------5-----|-------5---------5-------|
|-o---5---5-----5---5---|-----5---5-----5---5-----|
|-----------------------|-------------------------|
|-o---------------------|-------------------------|
|-----------------------|-------------------------|
|---5---------4---------|--2----------0-----------|
q e e e e er e (e) e e e e e e e
|------------------------|-------------------------|
|-------------10---------|-----------------------o-| repeat
|--7---7-7-7--9------9---|--(9)--9-9-9-9-9-9-9-----| until
|--7---7-7-7--7------9---|--(9)--9-9-9-9-9-9-9---o-| fade
|--5---5-5-5---------7---|--(7)--7-7-7-7-7-7-7-----|
|------------------------|-------------------------|
Enjoy!
I am . . .
M C Vic - "That which does not kill me better run like hell."
[email protected]
Check out the Skiptoe Home Page - If You Dare!!!!!!
The Awesome M C Vic Home Page is under construction:
Date: Fri, 22 Dec 95 04:04:54 CST
From: [email protected] (J.P. Seneviratne)
Subject: Tab:Comin' Home From Kiss Unplugged
Comin' Home... By: Kiss
From MTV's KISS Unplugged
& Hotter Than Hell
Standard Tuning
______________________________________________________________________________
(Fanfare)
Paul Stanley: "Boy we're gonna have a good time tonight!"
(Count four beats)
Intro- G,C,D
G,C,D
G
It's been a month or two since I've been sleeping with you.
C D
I'm comin' home again.
G C D
I've been to east and west but baby I like best the road that leads to you.
C D N.C.
Oh girl, it seems the whole wide world... Seems to say.
G
Hotels they all look the same, just seem to drive me insane,
C D
but I can't get away.
G
Until I recieve a call that tells me that will be all
C D
and the I hop a plane.
C D N.C.
It's true, I'm not sure if you knew.... I'm comin' home to you.
(Interlude)-G,F#m,Em,D: Pick these as shown below
----------|----------|---------|----------|
----------|----------|---------|-----3----| *See Special Notes
-----0----|----------|-----0---|---2------| Strum-C, Cadd9 or G,D
---0------|-----4----|---2-----|-0--------| Repeat 4 times
----------|---4------|-2-------|----------|
-3--------|-2--------|---------|----------|
C D N.C.
Oh girl, it seems the whole wide world... Seems to say.
G
Hotels they all look the same, just seem to drive me insane,
C D
but I can't get away.
G
Until I recieve a call that tells me that will be all
C D
and then I hop a plane.
C D N.C.
It's true, I'm not sure if you knew.... I'm comin' home to you.
(Interlude)-Repeate 3 times.
N.C.
I'm comin' home baby...
(Interlude)-Repeate 2 times.
End in Fanfare.
------------------------------------------------------------------------------
* Special Notes: During the strumming parts of the interlude I believe KISS
uses a Cadd9 before they change to the D chord, but I like the way the G
chord sounds better. So try it out both ways and pick your fave! Also the
Unplugged version might be different from the Hotter Than Hell version so if
it is you'll have to adjust timing, etc...
------------------------------------------------------------------------------
CHORDS USED IN COMIN' HOME:
G C D Cadd9 F#m Em
-3----|-0----|-2----|-3----|------|-0----|
-3----|-1----|-3----|-3----|------|-0----|
-0----|-0----|-2----|-0----|------|-0----|
-0----|-2----|-0----|-2----|-4----|-2----|
-2----|-3----|------|-3----|-4----|-2----|
-3----|------|------|------|-2----|------|
------------------------------------------------------------------------------
Send any corrections/improvements to [email protected]
Later!




Ваше мнение



Капча