Carr Jam 1981
Standard Tuning
G:------------|------------|------------|------------|---|
D:------------|-----------4|------------|------------|--0| x2
A:5---------/7|5-----------|5---------/7|5-----------|-2-|
E:--0-0--0-0--|--0-0--0-0--|--0-0--0-0--|--0-0--0-0--|3--|
G:------------|-----------1|------------|------------|---|
D:4----------4|2-----------|4----------2|2-----------|---|
A:------------|------------|------------|------------|2-0|
E:--2-2--2-2--|--2-2--2-2--|--2-2--2-2--|--2-2--2-2--|-2-|
G:------------|------------|------------|------------|---|
D:------------|-----------4|------------|------------|---| x2
A:5---------/7|5-----------|5---------/7|5-----------|5~-|
E:--0-0--0-0--|--0-0--0-0--|--0-0--0-0--|--0-0--0-0--|---|
G:------------|------------|------------|------------|
D:------------|------------|------------|------------|
A:7----------7|------------|7----------9|------------|
E:---0---0----|------------|---0---0----|------------|
G:------------|------------|------------|------------|
D:------------|------------|------------|------------|
A:-7--7--7--7-|------------|-9--9--9--9-|------------|
E:------------|------------|------------|------------|
~Drum Solo~
(2.31)
G:------------|------------|------------|------------|
D:------------|------------|------------|------------|
A:-----2----3-|----2---3---|-----2----3-|----2---3---|
E:5-----------|5-----------|5-----------|5-----------|
(Outro)
G:------------|------------|------------|------------|
D:------------|-----------2|------------|------------|
A:-----2----3-|---2---5----|------------|------------|
E:5-----------|5-----------|-0--0--0--0-|------------|
Thanks, please rate it after you learn it.
Tabbed by:
_TheBassist01_




Ваше мнение



Капча