Date: Mon, 21 Feb 1994 10:50:06 -0800
From: [email protected] (Rob Schenk)
KISS: Beth
Intro
|-3----3--3---1-0--0--0----|-----------------------1---|
|-1----1--1---1-1--3--1----|-1----1----0---1---3-------|
|-0----0--0---0-0--0--0--2-|-0--2-2--2---0---0---0---0-|
|-2----2--2---2-2--2--2----|------3--------------------|
|-3----3--3---3-3--3--3----|---------------------------|
|--------------------------|---------------------------|
|-3----3--3---1-0--0--0----|--------------3------------|
|-1----1--1---1-1--3--1----|-1----1---1---3------------|
|-0----0--0---0-0--0--0--2-|-2------2---2-0------------|
|-2----2--2---2-2--2--2----|-3------------0------------|
|-3----3--3---3-3--3--3----|--------------2------------|
|--------------------------|--------------3------------|
C dm Cmaj7 Am G
Beth, I hear you callin' but I | can't come home right now, |
F G C E E7
Me and the boys are playin' and we | just can't find the sound. |
Chorus
Am G F Em
Just a few more hours and I'll | be right home to you. I |
D7 F Am Am G
think i hear them callin'. Oh | Beth, what can I do? |
F F C
Beth, what can I do? |
at the end of this measure play single notes (16th): E:3 A:3 D:0 D:3
C dm Cmaj7 Am G
You say you feel so empty, that our| house just ain't a home |
F G C E E7
I'm always somewhere else and you're| always there alone |
Repeat Chorus
|-3----3--3---1-0--0--0----|-----------------------1---|
|-1----1--1---1-1--3--1----|-1----1----0---1---3-------|
|-0----0--0---0-0--0--0--2-|-0--2-2--2---0---0---0---0-|
|-2----2--2---2-2--2--2----|------3--------------------|
|-3----3--3---3-3--3--3----|---------------------------|
|--------------------------|---------------------------|
|-3----3--3---1-0--0--0----|---------------------------|
|-1----1--1---1-1--3--1----|-1----1---1---0-----0------|
|-0----0--0---0-0--0--0--2-|-2------2---2-2-----1------|
|-2----2--2---2-2--2--2----|-3------------2-----2------|
|-3----3--3---3-3--3--3----|---------------------------|
|--------------------------|---------------------------|
|---0---0---0---0-----------------|---------------------------------|
|-----3---1---0-----3-1-3-0-3---3-|---1-0-1---1---1---0---0---0---0-|
|-2---------------0-----------2---|---------2---0-------2---1---2---|
|---------------------------------|-3---------------2---------------|
|---------------------------------|---------------------------------|
|---------------------------------|---------------------------------|
|-----------------2-------3-------|-0---------------------0-----3---|
|-----------------2-------3-------|-1---------------------1-----3---|
|---2-0-2---2---2-3-------0-------|-2---------------------2-----0---|
|-0-------4---2---4-------0-------|-2---------------------2-----0---|
|-----------------4-------2-------|-0---------------------0-----2---|
|-----------------2-------3-------|-0---------------------0-----3---|
|-2-------2------0----------------|
|-2-------2------1----------------|
|-3-------3------0----------------|
|-4-------4------2------------0-3-|
|-4-------4------3----------3-----|
|-2-------2---------------3-------|
C Dm Cmaj7 Am G
Beth, I know you're lonely, and I | hope you'll be all right, cause |
F
me and the boys will be playin' all |
|-3----3--3---1-0--0--0----|-----------------------1---|
|-1----1--1---1-1--3--1----|-1----1----0---1---3-------|
|-0----0--0---0-0--0--0--2-|-0--2-2--2---0---0---0---0-|
|-2----2--2---2-2--2--2----|------3--------------------|
|-3----3--3---3-3--3--3----|---------------------------|
|--------------------------|---------------------------|
night.
|-3----3--3---1-0--0--0----|--------------3------------|-0-------0----------|
|-1----1--1---1-1--3--1----|-1----1---1---3------0-1-3-|-1------------------|
|-0----0--0---0-0--0--0--2-|-2------2---2-0------------|-0------------------|
|-2----2--2---2-2--2--2----|-3------------0------------|-2------------------|
|-3----3--3---3-3--3--3----|--------------0------------|-3------------------|
|--------------------------|--------------3------------|--------------------|
X
Date: Fri, 12 Apr 1996 17:42:12 EDT
From: [email protected] ( VINCE JOSAPHS)
Subject: TAB: by Vince Josaphs/Kiss
Beth(Unplugged) acoustic solo/KISS Unplugged
Tab Transcription by Vince Josaphs [email protected]
[email protected]----
B---|------------------5-------------8-----8--10^--8--8h10-----------
G---|-------5-----5--7^5--7--5---/9----9-----------------------------
D---|---/7-----7-----------------------------------------------------
A---|----------------------------------------------------------------
E---|----------------------------------------------------------------
E---10^-10^-10^-8--8--9--10--8--9--10--8--9--10-----10^--10^--8h10---
B--------------------------------------------------------------------
G--------------------------------------------------------------------
D--------------------------------------------------------------------
A--------------------------------------------------------------------
E--------------------------------------------------------------------
E---p8-----8---------------------------------------------------------
B-------10-----8--8h10p8-------------------------------8-----8--10^--
G----------------------------9--8--7---5--7^--5--7---/9-----9--------
D--------------------------------------------------------------------
A--------------------------------------------------------------------
E--------------------------------------------------------------------
E-----8--9--10--8--9--10----10^--10-----8h10p8-----8-----------------
B-----------------------------------------------10-------------------
G--------------------------------------------------------------------
D--------------------------------------------------------------------
A--------------------------------------------------------------------
E--------------------------------------------------------------------
======================================================================
==
== Created with TABESTRY Tab Creation Software for Windows
==
== For more info email [email protected]
==
======================================================================
==
If you have any old Anthrax, Pink Floyd, or Life of Agony, either
post them or send them to my E-mail Address. Kiss Reunion tour this
summer. Makeup and everything. I'll see you there.
[email protected]




Ваше мнение



Капча