Kiss 100,000 Years.
Tabbed by Cody Angus Co-T @ Codysmail.com.

100,000 Years
Performed By- Kiss
Words and Music By- Gene Simmons and Paul Stanley
From- Kiss LP
Tabbed By- Cody Angus [email protected]
Rhythm Fig. 1

Eb|------------------------------------------------------------|
Bb|---------------------------------------12--------10---------|
Gb|---------------------------------------12--------11---------|
Db|--------0------------------------------12--------12---------|
Ab|--0h-2-----2p-0---------------------------------------------|
Eb|-----------------3---0--------------------------------------|
Rhythm Fig. 2

Eb|-----------------------------------------------------------|
Bb|--------------------------------------------3----3-----3---|
Gb|------------------------------------------2----0-2p-0--2---|
Db|--------2--2--------2p-0------------2--2-------------------|
Ab|--------------------------2--------------------------------|
Eb|--0--0--------0--0------------0--0-------------------------|
Let ring - - - >
Rhythm Fig. 3a

Eb|-----------------------------------------------------------|
Bb|-----------------------------10--8------10--8--------------|
Gb|-----------------------------9---7------9---7--------------|
Db|--------2--2--------2p-0--x--7---5------7---5--------------|
Ab|-----------------------------------------------------------|
Eb|--0--0--------0--0-----------------------------------------|
Rhythm Fig. 3b

Eb|-----------------------------------------------------------|
Bb|--10--8------10--8-----------------------------------------|
Gb|--9---7------9---7-----------------------------------------|
Db|--7---5------7---5-----------------------------------------|
Ab|-----------------------------------------------------------|
Eb|-----------------------------------------------------------|
Rhythm Fig. 4

Eb|-----------------------------------------------------------|
Bb|----x--12--12---x--14--14------x--15--15----x--14--14------|
Gb|----x--12--12---x--14--14------x--16--16----x--14--14------|
Db|-----------------------------------------------------------|
Ab|-----------------------------------------------------------|
Eb|-----------------------------------------------------------|
< - - - - - - - - - - - - 2x - - - - - - - - - - - - >

Eb|-----------------------------------------------------------|
Bb|----x--12--12----x--14--14------x--15--15----14-----14----|
Gb|----x--12--12----x--14--14------x--16--16--------14--------|
Db|-----------------------------------------------------------|
Ab|-----------------------------------------------------------|
Eb|-----------------------------------------------------------|
Rhythm Fig. 5

Eb|-----------------------------------------------------------|
Bb|---------------------------------------------8-------------|
Gb|---------------------------------------------7-------------|
Db|--------2--2--------2p-0------------2--2-----5-------------|
Ab|--------------------------2--------------------------------|
Eb|--0--0--------0--0------------0--0--------0----------------|
Rhythm Fig. 6

Eb|-----------------------------------------------------------|
Bb|---------------------------------------10--8------10--8----|
Gb|-----------2------9--------------------9---7------9---7----|
Db|--5--------2------9--------------------7---5------7---5----|
Ab|--5--------0------7----------------------------------------|
Eb|--3--------------------------------------------------------|
Rhythm Fig. 7a

Eb|-----------------------------------------------------------|
Bb|-----------------------------------------------------------|
Gb|-----------------------------------------------------------|
Db|-----------------------------------------------------------|
Ab|--7--------5--7----5----7------------7---------5--7--------|
Eb|-----------------------------------------------------------|
< - - - - - 3x - - - - >
Rhythm Fig. 7b

Eb|-----------------------------------------------------------|
Bb|-----------------------------------------------------------|
Gb|--12-------11--12---11----12---------12--------11--12------|
Db|-----------------------------------------------------------|
Ab|-----------------------------------------------------------|
Eb|-----------------------------------------------------------|
Rhythm Fig. 8

Eb|-----------------------------------------------------------|
Bb|--------------------------------------------3----3-----3---|
Gb|------------------------------------------2----0-2p-0--2---|
Db|--------2--2--------2p-0------------2--2-------------------|
Ab|--------------------------2--------------------------------|
Eb|--0--0--------0--0------------0--0-------------------------|
Let ring - - - >

Eb|--3------------------1-------------------------------------|
Bb|--3------------------1-------------------------------------|
Gb|--0------------------2-------------------------------------|
Db|--0------------------3-------------------------------------|
Ab|---------------------3-------------------------------------|
Eb|---------------------1-------------------------------------|
Rhythm Fig. 9a

Eb|-----------------------------------------------------------|
Bb|-----------------------------------------------------------|
Gb|-----------------------------------------------------------|
Db|--2--0--2--2--0-----2--0--2--2--0------2----0--------------|
Ab|-----------------2-----------------2-------------2---------|
Eb|------------------------------------------------------0----|
Rhythm Fig. 9b

Eb|--7--7--7-x-x-x-7--7--7-x-x-x--7----------------------7---|
Bb|--8--8--8-x-x-x-8--8--8-x-x-x--8----------------------8---|
Gb|--9--9--9-x-x-x-9--9--9-x-x-x--9------7---------------9---|
Db|--9--9--9-x-x-x-9--9--9-x-x-x--9------7---------------9---|
Ab|--7--7--7-x-x-x-7--7--7-x-x-x--7------5---------------7---|
Eb|-------------------------------------------0---------------|
Riff 1

Eb|-----------------------------------------------------------|
Bb|-----3---3-----3-------------------------------------------|
Gb|--2----0-2p-0--2-------------------------------------------|
Db|-----------------------------------------------------------|
Ab|-----------------------------------------------------------|
Eb|-----------------------------------------------------------|
Let ring - - - >
Riff 2

Eb|-----------------------------------------------------------|
Bb|--12-------------------------------------------------------|
Gb|--12-------------------------------------------------------|
Db|--12-------------------------------------------------------|
Ab|-----------------------------------------------------------|
Eb|-----------------------------------------------------------|
Riff 3
Eb|-----------------------------------------------------------|
Bb|----x--12--12---x--14--14----------------------------------|
Gb|----x--12--12---x--14--14----------------------------------|
Db|-----------------------------------------------------------|
Ab|-----------------------------------------------------------|
Eb|-----------------------------------------------------------|
Riff 4

Eb|------12---------------------------------------------------|
Bb|------12---------------------------------------------------|
Gb|------14b--------------------------------------------------|
Db|-----------------------------------------------------------|
Ab|-----------------------------------------------------------|
Eb|-----------------------------------------------------------|
Riff 5

Eb|-----------------------------------------------------------|
Bb|------------------------------------15b-----------(15)----|
Gb|--14b-------14b---14p-12-----------------------------------|
Db|--------------------------14----12-------------------------|
Ab|-----------------------------------------------------------|
Eb|-----------------------------------------------------------|
2nd time only
Solo 1
Eb|-------------------------------------------------------------------------|
Bb|--15b----15b----15b----15b-----15b---15b---15b---15b---15b---15b---------|
Gb|-------------------------------------------------------------------------|
Db|-------------------------------------------------------------------------|
Ab|-------------------------------------------------------------------------|
Eb|-------------------------------------------------------------------------|
| < - - - - - 2x - - - - > < - - - - - - 2x - - - - - - - - > |
| |
| |
| |
Eb|--14b^---14b^---14b^---14b^----14b^--14b^--14b^--14b^--14b^--14b^--------|
Bb|-------------------------------------------------------------------------|
Gb|-------------------------------------------------------------------------|
Db|-------------------------------------------------------------------------|
Ab|-------------------------------------------------------------------------|
Eb|-------------------------------------------------------------------------|
< - - - - - 2x - - - - > < - - - - - - 2x - - - - - - - - >


Eb|-------------------------------------------------------------------------|
Bb|--15b-15b-15b-15b-15b-15b----15b-15b-15b-15b-15b-15b-15b-15b-15b-r15-----|
Gb|-------------------------------------------------------------------------|
Db|-------------------------------------------------------------------------|
Ab|-------------------------------------------------------------------------|
Eb|-------------------------------------------------------------------------|
| Hold bend - - - - - -> Hold bend - - - - - - - - - - - - > |
| |
| |
| |
| |
Eb|--14b^14b^14b^14b^14b^14b^---14b^14b^14b^14b^14b^14b^14b^14b^14b^r14-----|
Bb|-------------------------------------------------------------------------|
Gb|-------------------------------------------------------------------------|
Db|-------------------------------------------------------------------------|
Ab|-------------------------------------------------------------------------|
Eb|-------------------------------------------------------------------------|
Hold bend - - - - - -> Hold bend - - - - - - - - - - - - >

Eb|--15---14---12-----------------------------------------------------------|
Bb|----------------15---14---12---------------------------------------------|
Gb|------------------------------14---13---12-------------------------------|
Db|--------------------------------------------14---13---12-----------------|
Ab|-------------------------------------------------------------------------|
Eb|-------------------------------------------------------------------------|

Eb|-------------------------------------------------------------------------|
Bb|-------------------------------------------------------------------------|
Gb|-----------12----------12----------12----------12----------12----12------|
Db|-----12----------12----------12----------12----------12------------------|
Ab|--14----14----14----14----14----14----14----14----14----14----14---------|
Eb|-------------------------------------------------------------------------|

Eb|-------------------------------------------------------------------------|
Bb|-------------------------------------------------------------------------|
Gb|--14b^---14--12--14--15--14--12--14--15--14--12--------------------------|
Db|-------------------------------------------------------------------------|
Ab|-------------------------------------------------------------------------|
Eb|-------------------------------------------------------------------------|
< - - - - - - - - - - - - 2x - - - - - - - - - - >
Eb|-------------------------------------------------------------------------|
Bb|-------------------------------------------------------------------------|
Gb|-----------12----------12----------12----------12----------12------------|
Db|-----12----------12----------12----------12----------12----------12------|
Ab|--14----14----14----14----14----14----14----14----14----14----14---------|
Eb|-------------------------------------------------------------------------|

Eb|-------------------------------------------------------------------------|
Bb|-15----15----15----15-15----15-15----15----15----15----15-15----15-15-15-|
Gb|----12----12----12-------12-------12----12----12----12-------12----------|
Db|-------------------------------------------------------------------------|
Ab|-------------------------------------------------------------------------|
Eb|-------------------------------------------------------------------------|

Eb|-------------------------------------------------------------------------|
Bb|-------------------------------------------------------------------------|
Gb|-----------12----------12----------12----------12----------12----12------|
Db|-----12----------12----------12----------12----------12------------------|
Ab|--14----14----14----14----14----14----14----14----14----14----14---------|
Eb|-------------------------------------------------------------------------|

Eb|-------------------------------------------------------------------------|
Bb|--12--------------------------------------------------------------------|
Gb|--12--------------------------------------------------------------------|
Db|-------------------------------------------------------------------------|
Ab|-------------------------------------------------------------------------|
Eb|-------------------------------------------------------------------------|
Solo 2

Eb|-------------------------------------------------------------------------|
Bb|-------------------------------------------------------------------------|
Gb|---2b---r2-p0------------------------------------------------------------|
Db|--------------2-0(2)-----------------------------------------------------|
Ab|-------------------------------------------------------------------------|
Eb|-------------------------------------------0-----------------------------|
Eb|-------------------------------------------------------------------------|
Bb|--14b^-r14-14b^-r14-14b^-r14-14b^-r14-14b^-r14-14b^-r14------------------|
Gb|--14b^-r14-14b^-r14-14b^-r14-14b^-r14-14b^-r14-14b^-r14------------------|
Db|-------------------------------------------------------------------------|
Ab|-------------------------------------------------------------------------|
Eb|-------------------------------------------------------------------------|
Pick only first

Eb|------------------12-----------------------------------------------------|
Bb|--------------12------15b------------------------------------------------|
Gb|----------14b------------------------------------------------------------|
Db|-------------------------------------------------------------------------|
Ab|-------------------------------------------------------------------------|
Eb|-------------------------------------------------------------------------|
Solo 3

Eb|-------------------------------------------------------------------------|
Bb|----7-----7-----7-----8-----8-----8-----10----10----10----12----12----12-|
Gb|-7-----7-----7-----9-----9-----9-----11----11----11----12----12----12----|
Db|-------------------------------------------------------------------------|
Ab|-------------------------------------------------------------------------|
Eb|-------------------------------------------------------------------------|

Eb|-------------------------------------------------------------------------|
Bb|-----14----14----14----15----15----15-----17----17----17----15---15---15-|
Gb|--14----14----14----16----16----16-----18----18----18----16----16---16---|
Db|-------------------------------------------------------------------------|
Ab|-------------------------------------------------------------------------|
Eb|-------------------------------------------------------------------------|

Eb|-------------------------------------------------------------------------|
Bb|-------17-------15-------15-------17-------15-------15-------------------|
Gb|-/18-------18-------16------/18-------18-------16------------------------|
Db|-------------------------------------------------------------------------|
Ab|-------------------------------------------------------------------------|
Eb|-------------------------------------------------------------------------|
< - - - - - - - - - - - - - 2x - - - - - - - - - - - - >

Eb|-------------------------------------------------------------------------|
Bb|------14-----14----14-----12----12----12-----10----10----10----8-----8---|
Gb|--14-----14-----14-----12----12----12-----11----11----11----9-----9------|
Db|-------------------------------------------------------------------------|
Ab|-------------------------------------------------------------------------|
Eb|-------------------------------------------------------------------------|

Eb|-------------------------------------------------------------------------|
Bb|-------------------------------------------------------------------------|
Gb|-----------12----------12----------12----------12----------12----12------|
Db|-----12----------12----------12----------12----------12------------------|
Ab|--14----14----14----14----14----14----14----14----14----14----14---------|
Eb|-------------------------------------------------------------------------|



Eb|-------------------------------------------------------------------------|
Bb|-------------------------------------------------------------------------|
Gb|--14b^---14--12--14--15--14--12--14--15--14--12--------------------------|
Db|-------------------------------------------------------------------------|
Ab|-------------------------------------------------------------------------|
Eb|-------------------------------------------------------------------------|
< - - - - - - - - - - - - 2x - - - - - - - - - - >
Eb|-------------------------------------------------------------------------|
Bb|-------------------------------------------------------------------------|
Gb|-----------12----------12----------12----------12----------12------------|
Db|-----12----------12----------12----------12----------12----------12------|
Ab|--14----14----14----14----14----14----14----14----14----14----14---------|
Eb|-------------------------------------------------------------------------|


Eb|-------------------------------------------------------------------------|
Bb|-15----15----15----15-15----15-15----15----15----15----15-15----15-15-15-|
Gb|----12----12----12-------12-------12----12----12----12-------12----------|
Db|-------------------------------------------------------------------------|
Ab|-------------------------------------------------------------------------|
Eb|-------------------------------------------------------------------------|

Eb|-------------------------------------------------------------------------|
Bb|-------------------------------------------------------------------------|
Gb|----------12----------12----------12----------12-------------------------|
Db|----12----------12----------12----------12----------12----12h14p12----12-|
Ab|-14----14----14----14----14----14----14----14----14----14----------14----|
Eb|-------------------------------------------------------------------------|
100,000 YEARS
Paul Stanley, Gene Simmons
[Intro: Bass only]
[Rhy. Fig 1 with Riff 1]
[Rhy. Fig 2 with Riff 2] (4x)
[Rhy. Fig 2]
I'm sorry to have taken so long
It must have been a bitch while I was gone
You mind if I sit down for a while
[Rhy. Fig 3a w/ Riff 3]
You'll reacquaint yourself with my style
[Rhy. Fig 2 and Rhy. Fig 4]
Well, how could you have waited so long
It must have been a bitch while I was gone
All this time you put up a fear
[Rhy. Fig 6 with Riff 5]
For a hundred thousand years
[Rhy. Fig 5 with Riff 4] (3x)
[Rhy. Fig 2 with Riff 4]
[Rhy. Fig 2 and Rhy. Fig 4]
I'm sorry to have taken so long
It must have been a bitch while I was gone
All this time you put up a fear
[Rhy. Fig 6 with Riff 4]
For a hundred thousand years
[Rhy. Fig 7a and Rhy. Fig 7b]
And baby won't you let me
I think I'm goin' out of my head
I'm just about to, ooh yeah, ha
[Rhy. Fig 3b]
[Solo 1 over]
[Rhy. Fig 5] (3x)
[Rhy. Fig 8] (3x)
[Solo 2] (drums only)
I'm sorry to have taken so long
It must have been a bitch while I was gone
You mind if I sit down for a while, would you babe
You'll reacquaint yourself with my style
[Rhy. Fig 3b]
[Solo 3 over]
[Rhy. Fig 5] (3x)
[Rhy. Fig 8] (3x)
[Rhy. Fig 9a and Rhy. Fig 9b]




Ваше мнение



Капча