INTRO

B5 F#5
E -------------------I
B -------------------I
G --4-4-4------------I
D --4-4-4--4-4-4-4---I
A --2-2-2--4-4-4-4---I
E ---------2-2-2-2---I

B5 F#5
Устал я от жизни
Замучили гады
Куда переться ломает , но надо
Квартира _ помойка
Одно невезенье
Долой все попойки, бросаю куренье
Оставь не дай боже
Мои недостатки
Никто не поможет
С меня взятки гладки

припев:

B5 F#5 Bb5 B5
E --------------------------------I
B --------------------------------I
G --4-4-4-----------3-3-3--4-4-4--I
D --4-4-4--4-4-4-4--3-3-3--4-4-4--I
A --2-2-2--4-4-4-4--1-1-1--2-2-2--I
E ---------2-2-2-2----------------I

B5 F#5
Если вдруг смерть
Bb5 B5
Предложит мне встречу
Я промолчу
Ничего не отвечу
(вроде так)

Здоровье дороже
Чем мрачные ночи
Ушла, ну и что же
Нужна ты мне очень
А завтра работать
Вставать очень рано
Ах как же мне нравится
Группа Нирвана
Забыться бы сном
Но нет настроения
Наступит зима
А потом день рожденья

Если вдруг смерть
Предложит мне встречу
Я промолчу




Ваше мнение



Капча