Riff 1 (на каждом слове делаете удар по E5, затем сразу глушите аккорд):
1------|
2------|
3------|
4|--2--2--2--2--2--|
5|--2--2--2--2--2--|
6|--0--0--0--0--0--|
Riff 2:
1-------------------------------------|
2-------------------------------------|
3-------------------------------------|
4|--2-2-2--0-5-0-4---0-5-4-5-4-5--|--2-2-2--0-5-0-4--0-5-4-5--|
5|--2-2-2--0-5-0-4---0-5-4-5-4-5--|--2-2-2--0-5-0-4--0-5-4-5--|
6|--0-0-0--0-3-0-2---0-3-2-3-2-3--|--0-0-0--0-3-0-2--0-3-2-3--|
Riff 3:
1--------------|
2--------------|
3|--7/9999999999999999999--|
4|--7/9999999999999999999--|
5|--5/7777777777777777777--|
6--------------|
Riff 4:
1|
2|
3|
4|--2--2--2--|
5|--2--2--2--|
6|--0--0--0--|
Riff 1:
Водка - плохо!
Водка - плохо!
Плохо!
Riff 2
Riff 1:
Водка - плохо!
Водка - плохо!
Плохо!
Riff 3:
Последний раз был трезв, был солнечный день,
Было жарко, я очнулся и с трудом отполз в тень.
Никотин был на завтрак , потом я резко встал,
Выпил чашку пива и все резко осознал !!!
Что было вчера - просто ужасно,
До кого-то момента я помню все прекрасно,
Все было так прилично, зачем же я бухал?
И только что я остро и внезапно осознал:
Riff 1:
Водка - плохо!
Водка - плохо!
Плохо!
Riff 2
Riff 1:
Водка - плохо!
Водка - плохо!
Плохо!
Riff 3:
Digital портвейн убирает метко,
Вкус во рту - это цифра на этикетке.
Я плохо помню все, но это уже не важно,
С мыслями собрался и пошел домой отважно!
Последний раз я был трезв, был солнечный день,
Было жарко, я очнулся и с трудом отполз в тень.
Никотин был на завтрак , потом я резко встал,
Выпил чашку пива и все резко осознал !!!
Riff 1:
Водка - плохо!
Водка - плохо!
Плохо-о-о-о-о-о-о-о-о-о-о-о!

Riff 2
Riff 4




Ваше мнение



Капча