INTRO

Bass:

play 8x (играть в течении всей песни)
D -------------------------------------I
A -------------------------------------I
E --7-7-7-7--6-6-6-6--4-4-4-4-4-4-4-4--I
(в начале проиграть 4 раза, затем вступает гитара)

play 4x
E --------------------------------------I
B --------------------------------------I
G --------------------------------------I
D --------------------------------------I
A --9-9-9-9--8-8-8-8--6-6-6-6-6-6-6-6---I
E --7-7-7-7--6-6-6-6--4-4-4-4-4-4-4-4---I
(затем гитара прерывается и снова играет только басс)

Представь себе что ты лежишь в гробу
Тебе так сыро и темно
С червями ты ведешь борьбу
Хотя кто победит уж все равно

(затем вместе с бассом играет гитара)
play 4x (проигрыш)
E --------------------------------------I
B --------------------------------------I
G --------------------------------------I
D --9-9-9-9--8-8-8-8--6-6-6-6-6-6-6-6---I
A --9-9-9-9--8-8-8-8--6-6-6-6-6-6-6-6---I
E --7-7-7-7--6-6-6-6--4-4-4-4-4-4-4-4---I
(затем гитара снова прерывается и снова играет только басс)

Они уничтожают твое тело
Ты слышишь хруст их челюстей
Они все знают свое дело
Ты станешь горсточкой костей

(затем снова вместе с бассом играет гитара)
play 4x (проигрыш)
E --------------------------------------I
B --------------------------------------I
G --------------------------------------I
D --9-9-9-9--8-8-8-8--6-6-6-6-6-6-6-6---I
A --9-9-9-9--8-8-8-8--6-6-6-6-6-6-6-6---I
E --7-7-7-7--6-6-6-6--4-4-4-4-4-4-4-4---I

play 4x (во время этого проигрыша повторяется фраза "Представь себе что ты
лежишь в гробу")
E --------------------------------------I
B --------------------------------------I
G --------------------------------------I
D --9-9-9-9--8-8-8-8--6-6-6-6-6-6-6-6---I
A --9-9-9-9--8-8-8-8--6-6-6-6-6-6-6-6---I
E --7-7-7-7--6-6-6-6--4-4-4-4-4-4-4-4---I

Представь себе что ты лежишь в гробу




Ваше мнение



Капча