b - bend (машинка)
. - стаккато

riff 1 (G5, F#5, E5)
Main guitar:
Eb|---------------------------------|
Bb|---------------------------------|
Gb|---------------------------------|
Db|-5-5-5-5-5-4---2-----------------|
Ab|-5-5-5-5-5-4---2-----------------|
Eb|-3-3-3-3-3-2---0-----------------|
Bass:
Gb|---------------------------------|
Db|---------------------------------|
Ab|---------------------------------|
Eb|-3-3-3-3-3-2-x-0-----0---0-0-----|

riff 2 (E5, C#5, C5, E5, G, F#5)
Main guitar:
Eb|---------------------------------|
Bb|---------------------------------|
Gb|---------6---5-------------------|
Db|-2---2-2-6---5---2-2-2-2-5---4---|
Ab|-2---2-2-4---3---2-2-2-2-5---4---|
Eb|-0---0-0---------0-0-0-0-3---2---|
Bass:
Gb|---------------------------------|
Db|---------------------------------|
Ab|---------4---3-------------------|
Eb|-0---0-0-------0-0-0-0-0-3---2---|

riff 3 (E5, C#5, E5, C5, E5, G)
Main guitar:
Eb|---------------------------------|
Bb|---------------------------------|
Gb|---------6-----5-----------.-----|
Db|-2-2-2-2-6---2-5---2-5-5-5-5-----|
Ab|-2-2-2-2-4---2-3---2-5-5-5-5-----|
Eb|-0-0-0-0-----0-----0-3-3-3-3-----|
Bass:
Gb|---------------------------------|
Db|---------------------------------|
Ab|---------4-----3-----------.-----|
Eb|-0-0-0-0-----0-----0-3-3-3-3-----|

riff 4 (E5, C5, C#5, C5)
Main guitar:
Eb|---------------------------------|
Bb|---------------------------------|
Gb|---------5b------6b------5b------|
Db|-2b------5b------6b------5b------|
Ab|-2b------3b------4b------3b------|
Eb|-0b------------------------------|
Bass:
Gb|---------------------------------|
Db|---------------------------------|
Ab|---------3-----3-4-----4-3-------|
Eb|-0-----0-------------------------|

riff1 x 4 (0:00 - 0:14)
riff2 x 4 (0:14 - 0:28)
riff3 x 4 (0:28 - 0:42)
riff1 x 4 (0:42 - 0:56)
riff2 x 4 (0:56 - 1:10)
riff3 x 4 (1:10 - 1:24)
riff1 x 4 (1:24 - 1:38)
riff4 x 4 (1:38 - 1:52)
riff1 x 4 (1:52 - 2:06)
зависание на E5 (2:06 - 2:16)




Ваше мнение



Капча