Подобрал: Сергей Нестеренко ([email protected])
Bass:
И так далее...
G||-------------------------|-------------------------|---------------||
D||-------------------------|-------------------------|---------------||
A||--------3h---------------|-------------------------|--------3h-----||
E||--3h-5-----5--5----5--5--|--5----5--5--5--5--5--5--|--3h-5-----5---||
Сколько народа упало из окна ?
G||-------------------------|-----------------------|------------------||
D||-------------------------|-----------------------|------------------||
A||--4----4--4--4--4--4--3--|----3--3--3--3--3------|------------------||
E||-------------------------|-----------------------|--5--5--------5--5||
Guitar:
C# C A
E||-------------------------|-----------------------|------------------||
B||-------------------------|-----------------------|------------------||
G||--6----6--6--6--6--6--5--|----5--5--5--5--5------|------------------||
D||--6----6--6--6--6--6--5--|----5--5--5--5--5------|--7--7--------7--7||
A||--4----4--4--4--4--4--3--|----3--3--3--3--3------|--7--7--------7--7||
E||-------------------------|-----------------------|--5--5--------5--5||
Вот, в-принципе, и вся песня. В конце ещё есть соло, но на него у меня пока
Что мочи не хватает. А в таком виде песню вполне неплохо можно играть. Да,
Естественно, партия гитары может быть не терциями, а квинтами, но это уж
Как у кого пальцы гнутся :)




Ваше мнение



Капча