Подобрал: Smeck([email protected])
INTRO
G#5 B5 G#5 F#5
E -------------------------------I-------------------------------I
B -------------------------------I-------------------------------I
G -------------------------------I-------------------------------I
D --6-6-6-6---6--6-6--6-6---9-9--I--6-6-6-6---6--6-6--6-6---4-4--I
A --6-6-6-6---6--6-6--6-6---9-9--I--6-6-6-6---6--6-6--6-6---4-4--I
E --4-4-4-4---4--4-4--4-4---7-7--I--4-4-4-4---4--4-4--4-4---2-2--I
Дальше, в начале каждой строки играть аккорд G#5
G#5
E ---------I
B ---------I
G ---------I
D --6-6--6-I
A --6-6--6-I
E --4-4--4-I
И в конце каждой строки аккорды (меняя через строку) B5 и F#5.
B5 F#5
E ------I E ------I
B ------I B ------I
G ------I и G ------I
D --9-9-I D --4-4-I
A --9-9-I A --4-4-I
E --7-7-I E --2-2-I

Пример:
G#5 B5
Банкет в полном разгаре она лицом об стол
G#5 F#5
Тебя так прет и так бодрит тебе хорошо...
(и так до конца песни, кроме припева)
Припев: (припев вроде такой)
G#5 B5 B5 G#5
E ----------------I--------------I
B ----------------I--------------I
G ----------------I--------------I
D --6-6-6-6--9-9--I--9-9-9-9--6--I
A --6-6-6-6--9-9--I--9-9-9-9--6--I
E --4-4-4-4--7-7--I--7-7-7-7--4--I
G#5 B5 G#5
С открытым сердцем, душою чист
G#5 B5 G#5
Я четко понял, я _ феминист
(потом просто повторить припев без слов)




Ваше мнение



Капча