INTRO
Bass:
G|-----------------------------------------------------------------|
D|-----------------------------------------------0-----------------|
A|-----------------3-----2---------0-----0---2-3-------3-----------|
E|---0-----0---2-3-------------------------------------------------|

G|-----------------------------------------------------------------|
D|-----------------------------------------------0-----------------|
A|-----------------3-----2---------0-----0---2-3---3---3-2---0-----|
E|---0-----0---2-3---------------------------------------------3-2-|

VERSE1
Em, G, H7
Em, C, H7
Bass:
G|-----------------------------------|-----------------|
D|-----------------------------------|-----------------|
A|-------------------------2-2---2-2-|-----------3---2-|
E|-0-0---0-0---3-3---3-3-------------|-0-0---2-3-------|

CHORUS
Em, G, A
Em, D, C
Main guitar:
E|-----------------------------------------------------------------|
B|-----------------------------------------------------------------| |
G|-x-9-x-x-9-9-9-9-x-9-x-x-9-9-9-9---------------------------------| |
D|-x-9-x-x-9-9-9-9-x-9-x-x-9-9-9-9-x-5-x-x-5-5-5-5-x-7-x-x-7-7-7-7-| |
A|-x-7-x-x-7-7-7-7-x-7-x-x-7-7-7-7-x-5-x-x-5-5-5-5-x-7-x-x-7-7-7-7-| |
E|---------------------------------x-3-x-x-3-3-3-3-x-5-x-x-5-5-5-5-| |
Bass: |
G|-----------------------------------------------------------------| |
D|-----------------------------------------------------------------| |
A|-----------------------------------------------------------------| |
E|-0-0-0-0-0-0-0-0-0-0-0-0-0-0-0-0-3-3-3-3-3-3-3-3-5-5-5-5-5-5-5-5-| |
>2 times
Main guitar: |
E|-----------------------------------------------------------------| |
B|-----------------------------------------------------------------| |
G|-x-9-x-x-9-9-9-9-x-9-x-x-9-9-9-9-x-7-x-x-7-7-7-7-x-5-x-x-5-5-5-5-| |
D|-x-9-x-x-9-9-9-9-x-9-x-x-9-9-9-9-x-7-x-x-7-7-7-7-x-5-x-x-5-5-5-5-| |
A|-x-7-x-x-7-7-7-7-x-7-x-x-7-7-7-7-x-5-x-x-5-5-5-5-x-3-x-x-3-3-3-3-| |
E|-----------------------------------------------------------------| |
Bass: |
G|-----------------------------------------------------------------| |
D|-----------------------------------------------------------------| |
A|---------------------------------5-5-5-5-5-5-5-5-3-3-3-3-3-3-3-3-| |
E|-0-0-0-0-0-0-0-0-0-0-0-0-0-0-0-0---------------------------------| /

INTRO

VERSE2

CHORUS

OUTRO
Em, F#m, G, Am
Solo:
E|-----------------------------------------------------------------|
B|-----------------------------------------------------------------|
G|---------0-0---------------------0-0-0-0-4-4-0-0-2-2-2-2-2-2-2-2-|
D|-2-2-2-2-----2-2-4-4-4-4-4-4-4-4---------------------------------|
A|-----------------------------------------------------------------|
E|-----------------------------------------------------------------|




Ваше мнение



Капча