Ver.1
~~~~~
Intro
1-----7-5-0-------3-0--------5-------|-7-5-0-------3-0--------5-------------
2-0---------1---------1-3------3-1-0-|-------1---------1-3------3-1-0-------
3---5--------------------------------|--------------------------------------
4------------------------------------|--------------------------------------
5------------------------------------|--------------------------------------
6------------------------------------|--------------------------------------
Harm.-------------------|
1-----7-5-0-------3-0--------5-------|-7-5-0-----12--------------12----12---
2-0---------1---------1-3------3-1-0-|-------1------12--------12-------12---
3---5--------------------------------|-----------------12--12----------12---
4------------------------------------|--------------------------------------
5------------------------------------|--------------------------------------
6------------------------------------|--------------------------------------
В куплете игpаются harm'ики на 12-ом пеpебоpом по пеpвым тpем стpунам (а'ля
Intro). А вот пpипев я точно не подобpал, но сам игpаю так:
1---------12------------------12------------------14------------------12----
2----13------13----13----13------13----13----15------15----15----12------12-
3-14------------14----12------------12----14------------14----12------------
4---------------------------------------------------------------------------
5---------------------------------------------------------------------------
6---------------------------------------------------------------------------
1-------
2----12-
3-12----
4-------
5-------
6-------
Solo
1-10-8-7-8-10--10-8-7-8-10--10-8-7-8-10-8--8-8-7---7--8--10--|-12-10-8-10-12---
2------------------------------------------------------------|-----------------
3*----------------------------------------------------------*|-----------------
4*----------------------------------------------------------*|-----------------
5------------------------------------------------------------|-----------------
6------------------------------------------------------------|-----------------
1-12-10-8-10-12--12-10-8-10-12-10--10-8-7---7--8--10--10-8-7-8-10--10-8-7-8-10-
2------------------------------------------------------------------------------
3------------------------------------------------------------------------------
4------------------------------------------------------------------------------
5------------------------------------------------------------------------------
6------------------------------------------------------------------------------
1-10-8-7-8-10-8--8--7----------------------------------------------------------
2------------------------------------------------------------------------------
3------------------------------------------------------------------------------
4------------------------------------------------------------------------------
5------------------------------------------------------------------------------
6------------------------------------------------------------------------------

Ver.2
~~~~~
Written down by Dead Moroz; Thanx to Andrey the Small.
Intro
E|------------7--5--------3-----------5-----------7--5-----------|
H|------------------5--------5-----------7--------------5--------|
G|-----4--5------------5--------5//7--------5--4-----------5-----|
D|---------------------------------------------------------------|
A|---------------------------------------------------------------|
E|---------------------------------------------------------------|
E|--3-----------5--------------------------------------------------|
H|-----5-----------7-----------------------------------------------|
G|--------5//7--------7--5-----------------------------------------|
D|-----------------------------------------------------------------|
A|-----------------------------------------------------------------|
E|-----------------------------------------------------------------|
Interlude=Intro+The following:
E|--10-10-10--10-8-7-8-10--10-8-7-8-10--10-8-7-8-10//12-12-12------|
H|-----------------------------------------------------------------|




Ваше мнение



Капча