intro
F#m F#m F#m F#m F#m C#m C#m

e| --2---2----2---2-----2-----------------4----4-------4--4-------
a|---4---4----4---4-----4-----------------4----4-------4--4--------
d|---4---4----4---4-----4---4-4-4---------6----6-------6--6--------
g|---2---2----2---2-----2---2-2-2--2------6----6-------4--6--------
h|---2---2----2---2-----2---5-4-2---------5----5-------7--7--------
e|---2---2----2---2-----2---2-2-2---------4----4-------4--4--------
D U D U U D U D U D U D U
D-вниз, U-вверх

Это вступление повторяется 4 раза

Бас ,соло-все в порядке в размещенной на этом сайте
другой версии,а вот в куплете играется так:

F#m F#m C#m C#m
e|--2---2--2---2---2-----2---2--2---2--2---4--4--4--4--4----4--4--4-4-4-
a|--4---4--4---4---4-----4---4--4---4--4---4--4--4--4--4----4--4--4-4-4-
d|--4---4--4---4---4-----4 --4--4---4--4---6--6--6--6--6----6--6--6-6-6-
g|--2---2--2---4---2-----2---2--2---4--2---4--4--4--6--4----4--4--4-6-4-
h|--2---2--2---2---2-----2---2--2---2--2---5--5--5--5--5----5--5--5-5-5-
e|--2---2--2---2---2-----2---2--2---2--2---4--4--4--4--4----4--4--4-4-5-
U D U D U U D U D U U D U D U U D U D U
Теплое место , но улицы ждут отпечатков наших ног

F#m F#m E E
e|--2---2--2--2--2---2--2--2--2--2--0--0--0--0--0----0--0--0--0--0--0-0-
a|--4---4--4--4--4---4--4--4--4--4--2--2--2--2--2----2--2--2--2--2--2-2-
d|--4---4--4--4--4---4--4--4--4--4--2--2--2--2--2----2--2--2--2--2--2-2-
g|--2---2--2--4--2---2--2--2--4--2--1--1--1--2--1----1--1--1--2--1--2-1
h|--2---2--2--2--2---2--2--2--2--2--0--0--0--0--0----0--0--0--0--0--0-0-
e|--2---2--2--2--2---2--2--2--2--2--0--0--0--0--0----0--0--0--0--0--0-0-
U D U D U U D U D U U D U D U U D U D U D U
Звездная пыль на сапогах

И т.д. весь1-й и2-й куплеты

В припеве советую брать F#m и C#m на 9 –ом ладу
Hm и E на 7-ом




Ваше мнение



Капча

Комментарии

Ваня
Классная песня!!Я сам её играю на гитаре!