================================================================================
Title : Trick Or Treat
Artist : King Diamond
Album : The Graveyard
Transcribed by : Dave Zatuchney [email protected]
[email protected]===============
Legend
------
h = hammer-on
p = pull-off
b = bend
r = bend release
/ = slide up/down
= natural harmonic
[5] = artifical harmonic
~ = vibrato
tr = trill

Guitar 1 Left Channel Riff A
E|------------------------------------|---|---|-------|----------------
B|------------------------------------|---|---|-------|----------------
G|------------------------------------|-|-|-------|----------------
D|------------------------------------|---|---|-------|----------------
A|------------------------------------|---|---|---7-6-|----------------
E|-4-4-4-4--4-4-4-4--4-4-4-4--4-4-4-4-|---|---|-------|-4-4-4-4--4-4-4-
E|----------------------------------------------------|----------------
B|----------------------------------------------------|----------------
G|----------------------------------------------------|----------------
D|----------------------------------------------------|----------------
A|------------------------------------------------7-6-|----------------
E|-4--4-4-4-4--4-4-4-4-4-4-4-4--4-4-4-4--4-4-4-4------|-4-4-4-4--4-4-4-
E|---------------------|---|-------------------------------------------
B|---------------------|---|-------------------------------------------
G|---------------------|-|------------------------------------------/
D|---------------------|---|------------------------------6--8-6-------
A|---------------------|---|-------------------------------------9-6~--
E|-4--4-4-4-4--4-4-4-4-|---|-4-4-4-4-----4-4-4-4--4-4-4-4--------------
G#5 G#5 G#5 Eb5 F#5 A5 G#5 G#5 G#5 B5 Bb5 B5
End of Riff A Riff B End of Riff B
E|---------------------------|---|---|---|---------|---|---|---|--------
B|---------------------------|---|---|---|---------|---|---|---|--------
G|-6-------------------------|---|---|---|---------|---|---|---|--------
D|---9-8--9-8----6-8-9-8-6---|---|---|---|-8-11-14-|---|---|---|--------
A|------------6~-----------9-|-6-|-6-|-6-|-6--9-12-|-6-|-6-|-6-|--9-8-9-
E|---------------------------|-4-|-4-|-4-|---------|-4-|-4-|-4-|--7-6-7-
G#5 A5 G#5 A5 G#5 A5 Eb5 F#5 A5 G#5 A5 G#5 A5 G#5 A5 B5 Bb5
Riff C End of Riff C
E-|-----------------------------------|--------------------------------
B-|-----------------------------------|--------------------------------
G-|-----------------------------------|--------------------------------
D-|---------------------------8-11-14-|--------------------------------
A-|---6---7----6---7----6---7-6--9-12-|---6---7----6---7----6---7--9-8-
E-|-4-4-4-5--4-4-4-5--4-4-4-5---------|-4-4-4-5--4-4-4-5--4-4-4-5--7-6-
B5 E5 E5 D5 D5 E5
Riff D Repeat Riff C1x,Riff D 2x
E|---|--------------------------------------------|---|----------------
B|---|--------------------------------------------|---|----------------
G|---|--------------------------------------------|-|----------------
D|---|--------9--------7-9-7-------------9-7--7-9-|---|----------------
A|-9-|--------7---7-10-------10-9--------7-5--5-7-|---|----------------
E|-7-|-0-0--0---------------------0-0--0----------|---|----------------

Riff E
E|------------|-----|-----|--------|---|--------------------------------
B|------------|-----|-----|--------|---|--------------------------------
G|------------|-----|-----|--------|-|--------------------------------
D|------------|---4-|---4-|--------|---|--------------------------------
A|------------|-----|-----|-/6-5-3-|---|--------------------------------
E|------------|-2-2-|-2-2-|--------|---|-0-0-0-0--0-0-0-0--0-0-0-0--0-0-

Guitar Solo Riff F
E|-----|---|---|---|----------|---|---|---|--------|---|----|----|-----
B|-----|---|---|---|----------|---|---|---|--------|---|----|----|-----
G|-----|-|-|-|----------|-4-|-6-|-7-|-6--6-7-|-9-|-11-|-12-|-11--
D|-----|---|---|---|----------|---|---|---|--------|---|----|----|-----
A|-----|---|---|---|----------|-2-|-4-|-5-|-4--4-5-|-7-|--9-|-10-|--9--
E|-0-0-|---|---|---|----------|---|---|---|--------|---|----|----|-----
D5/A
E|-------|--------------------------|--------------------------|--------
B|-------|--------------------------|--------------------------|--------
G|-11-12-|--------------------------|------------------------7-|--------
D|-------|--------------------------|------------------------7-|--------
A|--9-10-|--------------------------|------------------------5-|--------
E|-------|--------------------------|-2--2-2-2-2-2--2-2-2-2--5-|-2--2-2-
D5/A
E|---------------------|-----------------------------------------------
B|---------------------|-----------------------------------------------
G|---------------------|------------------------7----------------------
D|---------------------|------------------------7----------------------
A|----------------3~-2-|------------------------5----------------------
E|-2-2-2--2-2-2-2------|-2--2-2-2-2-2--2-2-2-2--5----2--2-2-2-2-2--2-2-

Repeat Riff F 1x
E|-----------|-------------------------------|-------------------------
B|-----------|-------------------------------|-------------------------
G|------5--7-|-------------------------------|-------------------------
D|-----------|-------------------------------|----------------x-x-x-x--
A|------3--5-|-------------------------------|-----2-3-2------x-x-x-x--
E|-2-2-------|-------------------------------|-2-5-------5-2--x-x-x-x--
E----------|----------------------------------|------------------------
B----------|----------------------------------|------------------------
G----------|----------------------------------|------------------------
D-x--x-x-x-|----------------x-x-x-x--x--x-x-x-|-----2-3-2--------x-x-x-
A-x--x-x-x-|-----2-3-2------x-x-x-x--x--x-x-x-|-2-5-------5-2----x-x-x-
E-x--x-x-x-|-2-5-------5-2--x-x-x-x--x--x-x-x-|------------------x-x-x-
B5 A5
Repeat Riff B1x,Riff C1x,Riff D2x,Riff E2x
E|-------------|----------------------------------|---|---|------------
B|-------------|----------------------------------|---|---|------------
G|-------------|----------------------------------|---|---|------------
D|-x--x--x-x-x-|---2-4-5-4-2----x-x-x-x--x--x-x-x-|-4-|-2-|------------
A|-x--x--x-x-x-|-4-----------4--x-x-x-x--x--x-x-x-|-2-|-0-|------------
E|-x--x--x-x-x-|----------------x-x-x-x--x--x-x-x-|---|---|------------
E|-------------------------|--------|----------------------------------
B|-------------------------|--------|----------------------------------
G|-------------------------|--------|----------------------------------
D|-------------------------|-/5-4-2-|----------------------------------
A|-------------------------|--------|----------------------------------
E|-------------------------|--------|-4-4-4-4--4-4-4-4--4-4-4-4--4-4-4-

Repeat Riff A 1x,Riff C1x,Riff D2x,Riff E2x
E|---|---|-----|---------------------------------------------|---------
B|---|---|-----|---------------------------------------------|---------
G|---|-|-----|---------------------------------------------|---------
D|---|---|-----|---------------------------------------------|---------
A|---|---|-7-6-|---------------------------------------------|---------
E|-4-|---|-----|---------------------------------------------|---------
D5/A A5 G#5
Guitar 2 Right Channel
E-------*|------------------------------------|---|---|-----|----------
B-------*|------------------------------------|---|---|-----|----------
G----7--*|------------------------------------|-|-|-----|----------
D----7--*|------------------------------------|---|---|-----|----------
A----5--*|------------------------------------|---|---|-7-6-|----------
E----5--*|-4-4-4-4--4-4-4-4--4-4-4-4--4-4-4-4-|---|---|-5-4-|-4-4-4-4--
A5 G#5
Riff A
E|------------------------------------------------------------|---------
B|------------------------------------------------------------|---------
G|------------------------------------------------------------|---------
D|------------------------------------------------------------|---------
A|--------------------------------------------------------7-6-|---------
E|-4-4-4-4--4-4-4-4--4-4-4-4---4-4-4-4--4-4-4-4--4-4-4-4--5-4-|-4-4-4-4-
E5 Eb5
End Riff A Riff B
E|----------------------------|---|---------------------------|---|---|-
B|----------------------------|---|---------------------------|---|---|-
G|----------------------------|-|---------------------------|---|---|-
D|----------------------------|---|---------------------------|-9-|-8-|-
A|----------------------------|---|---------------------------|-7-|-6-|-
E|--4-4-4-4--4-4-4-4--4-4-4-4-|---|-4-4-4-4--4-4-4-4--4-4-4-4-|---|---|-
E5 Eb5 E5 F#5 G#5 A5 G#5 A5 G#5 A5 Eb5 F#5 A5 G#5 A5
Riff C
E|---|---|---|----|------------------------------------|----------------
B|---|---|---|----|------------------------------------|----------------
G|---|---|---|----|----------------------------------2-|----------------
D|-9-|-8-|-9-|-11-|----------------------------1--4--2-|----------------
A|-7-|-6-|-7-|--9-|---6---7----6---7----6---7--1--4----|---6---7----6---
E|---|---|---|----|-4-4-4-5--4-4-4-5--4-4-4-5----------|-4-4-4-5--4-4-4-
A5 G#5 A5 B5 Bb5 B5 G5 G5 D/F# G5 D/F# G5
End Riff C Riff D
E|-------------------|---|---------------------------------------------
B|-------------------|---|---------------------------------------------
G|-------------------|-|--------7------------------------7--7-7--7-7-
D|-------------------|---|--------5------4-5-4-------------5--4/5--4/5-
A|-7----6---7--9-8-9-|---|-----------5-7-------7-5---------------------
E|-5--4-4-4-5--7-6-7-|---|-0-0--0-------------------0-0--0-------------
G5 G5 D/F# G5 D/F#
Repeat Riff C1x,Riff D1x Riff E
E-|---------------------------------------------|------------|----------
B-|---------------------------------------------|------------|----------
G-|--------7------------------------7--7-7--7---|------------|----------
D-|--------5------4-5-4-------------5--4/5--4-5|------------|-4--------
A-|-----------5-7-------7-5---------------------|------------|----------
E-|-0-0--0-------------------0-0--0-------------|------------|---2-2--2-
C5
E|--------|---------------------|--|-----------------------------------
B|--------|---------------------|--|-----------------------------------
G|--------|---------------------|--|-----------------------------------
D|-4----5-|-4--------4----------|--|-----------------------------------
A|------3-|---------------3-2-0-|--|-----------------------------------
E|---2----|---2-2--2---2--------|--|--------0-0-0-0--0-0-0-0--0-0-0-0--
E5 E5 F#5 F#5 G5
Riff F Guitar Solo Riff
E|---------|---|---|---|------------------------------------------------
B|---------|---|---|---|------------------------------------------------
G|---------|-|-|-|------------------------------------------------
D|---------|---|---|---|-9-------------9-11-------------11-12-----------
A|---------|---|---|---|-7-------------7--9--------------9-10-----------
E|-0-0-0-0-|---|---|---|---0-0-0-0-0-0------0-0-0-0-0-0-------0-0-0-0-0-
G5 F#5 F#5 G5 D5/A
E|---------------------|---|--------------------------|-----------------
B|---------------------|---|--------------------------|-----------------
G|---------------------|-|------------------------7-|-----------------
D|---12-11-------11-12-|---|------------------------7-|-----------------
A|---10--9--------9-10-|---|------------------------5-|-----------------
E|-0-------0-0-0-------|---|-2--2-2-2-2-2--2-2-2-2--5-|-2--2-2-2-2-2--2-
D5/A
E|-------------|--------------------------|----------------------------
B|-------------|--------------------------|----------------------------
G|-------------|------------------------7-|-----------------------5--7-
D|-------------|------------------------7-|----------------------------
A|--------3--2-|------------------------5-|-----------------------3--5-
E|-2-2-2-------|-2--2-2-2-2-2--2-2-2-2--5-|-2--2-2-2-2-2--2-2-2-2------
B5
Repeat Riff F2x
E-|---------|-----------------------------------|---|---|---|---|-----|-
B-|---------|-----------------------------------|---|---|---|---|-----|-
G-|---------|-----------------------------------|-|-|-|---|-----|-
D-|---------|-----------------x-x-x-x--x--x-x-x-|---|---|---|-4-|-(4)-|-
A-|---------|------2-3-2------x-x-x-x--x--x-x-x-|---|---|---|-2-|-(2)-|-
E-|---------|--2-5-------5-2--x-x-x-x--x--x-x-x-|---|---|---|---|-----|-

C5
Repeat Riff C2x,Riff D1x
E|----------------|----------------|-----------------|--|-|-------|-----
B|----------------|----------------|-----------------|--|-|-------|-----
G|----------------|----------------|-----------------|--|-|-------|-----
D|----------------|----4---------5-|-4---------------|--|-|-------|-----
A|----------------|--------------3-|-----------3-2-0-|--|-|-7-5-3-|-----
E|----------------|------2-2--2----|---2-2--2--------|--|-|-------|-4-4-

Repeat Riff A1x,Riff B1x,Riff C1x,Riff D1x,Riff E2x
E|--------------------------------|---|--------------------------------
B|--------------------------------|---|--------------------------------
G|--------------------------------|-|--------------------------------
D|--------------------------------|---|--------------------------------
A|--------------------------------|---|--------------------------------
E|-4-4--4-4-4-4--4-4-4-4--4-4-4-4-|---|--------------------------------

B5/F#
E|----------------|---*|-
B|----------------|---*|-
G|----------------|-4-*|-
D|----------------|-4-*|-
A|----------------|-2-*|-
E|----------------|-2-*|-




Ваше мнение



Капча