Date: Tue, 28 Oct 1997 08:45:59 -0500
From: Pat Miniaci
Subject: hello its me by lou reed/john rale
To: [email protected]
MIME-version: 1.0
X-MSMail-Priority: Normal
X-Priority: 3

****************************************************************
For more King Diamond/Mercyful Fate tablature and other material
visit Justin's Home of King Diamond.....
http://www.geocities.com/SunsetStrip/Alley/6066/index.html
or you can mail me at
[email protected]
****************************************************************
Tabbed by Justin: [email protected]
Subject: TAB: King Diamond----Killer
Legend:
-------
P.M--- mute
( bend up
) bend down
H hammer on
Harm Harmonic
P pull off
A.H artificial harmonic
/\/\ vibrato
/ slide up
\ slide down
T tap
// repeat phrase
Title: "Killer", taken from the King Diamond album 'The Spider's Lullabye'.
(Music by La Rocque, Lyrics by King Diamond)
E:------------------------------------------------------------|
B:------------------------------------------------------------|
G:--------------------0-0-0-----------------------------------|
D:---------------2-------------------2--7-5-7-8-7-5-----------|
A:---------------2--/5-5-5-----------2--7-5-7-8-7-5-----------|
E:-12\--0--0-0-0-0----------0--0-0-0-0------------------------|
A.H \/\/\/\/\/
E:------------------------------------------------------------|
B:------------------------------------------------------------|
G:--------------------0-0-0-----------------------------------|
D:---------------2-------------------2--7-5-7-----------------|
A:---------------2--/5-5-5-----------2--7-5-7-8---------------|
E:------0--0-0-0-0----------0--0-0-0-0------------------------|
E:------------------------------------------------------------|
B:------------------------------------------------------------|
G:--------------------0-0-0-----------------------------------|
D:---------------2-------------------2--7-5-7-8-7-5-----------|
A:---------------2--/5-5-5-----------2--7-5-7-8-7-5-----------|
E:------0--0-0-0-0----------0--0-0-0-0------------------------|
E:------------------------------------------------------------|
B:------------------------------------------------------------|
G:--------------------0-0-0-----------------------------------|
D:---------------2-------------------2--7-5-7-8-8-------------|
A:---------------2--/5-5-5-----------2--7-5-7-8-8-------------|
E:------0--0-0-0-0----------0--0-0-0-0------------------------|
(With attached figure)
E:------------------------------------------------------------|
B:------10-------------10------------10-------------10--------|
G:-7-10-7--7-10---7-10-7--7-10--7-10-7--7-10---7-10-7---7-10--|
D:------------------------------------------------------------|
A:------------------------------------------------------------|
E:------------------------------------------------------------|
| |
E:------------------------------------------------------------|
B:------------------------------------------------------------|
G:------------------------------------------------------------|
D:-7-------------------8-8------7----8-8-------7----8-8-------|
A:-5-------------------6-6------5----6-6-------5----6-6-------|
E:------------------------------------------------------------|
E:------------------------------------------------------------|
B:------8------------8------------8------------8--------------|
G:-6-9-6--6-9---6-9-6--6-9---6-9-6--6-9---6-9-6--6-9----------|
D:------------------------------------------------------------|
A:------------------------------------------------------------|
E:------------------------------------------------------------|
| |
E:------------------------------------------------------------|
B:------------------------------------------------------------|
G:------------------------------------------------------------|
D:-2-----------------3-3------2--3-3------2--3-3--------------|
A:-2-----------------3-3------2--3-3------2--3-3--------------|
E:-0--------------------------0-----------0-------------------|
/\/\/\/\
E:------------------------------------------------------------|
B:------10-------------10-------------------------------------|
G:-7-10-7--7-10---7-10-7--7-10--------------------------------|
D:------------------------------------------------------------|
A:------------------------------------------------------------|
E:------------------------------------------------------------|
| |
E:------------------------------------------------------------|
B:------------------------------------------------------------|
G:------------------------------------------------------------|
D:-7----------------------------------------------------------|
A:-5----------------------------------------------------------|
E:------------------------------------------------------------|
Figure 1. At midnight, an hour from now...
E:------------------------------------------------------------|
B:------------------------------------------------------------|
G:------------------------------------------------------------|
D:-7-----8-----7-----8-----5-----5-----8-----7----------------|
A:-5-----6-----5-----6-----3-----3-----6-----5----------------|
E:---0-0---0-0---0-0---0-0---0-0---0-0---0-0------------------|
they're gonna flick the switch
E:------------------------------------------------------------|
B:------------------------------------------------------------|
G:------------------------------------------------------------|
D:----7-----8-----7-----8----------------------5--------------|
A:----5-----6-----5-----6--------------\/\/\/\-5--------------|
E:0-0---0-0---0-0---0-0---0-0---------1--------3--------------|
Down the Hall, beyond the iron door...
E:------------------------------------------------------------|
B:------------------------------------------------------------|
G:------------------------------------------------------------|
D:-7-----8-----7-----8-----5-----5-----8-----7----------------|
A:-5-----6-----5-----6-----3-----3-----6-----5----------------|
E:---0-0---0-0---0-0---0-0---0-0---0-0---0-0------------------|
they're gonna end my life
E:------------------------------------------------------------|
B:------------------------------------------------------------|
G:------------------------------------2-------3---------------|
D:----7-----8-----7-----8-------------2-------3---------------|
A:----5-----6-----5-----6-------------0-------1---------------|
E:0-0---0-0---0-0---0-0---0-0---------------------------------|
I will see you all in Hell
E:------------------------------------------------------------|
B:------------------------------------------------------------|
G:----------------p-------------------------------7-----------|
D:---7---6---6--6---5---5---5----7---6---6--------7-----------|
A:-0---0---0----------7---0----0---0---0---3-3-3--5-----------|
E:------------------------------------------------------------|
isn't that where we all must go? (end fig.1)
E:------------------------------------------------------------|
B:------------------------------------------------------------|
G:----------------p-------------------------------5-6-7-------|
D:---7---6---6--6---5---5---5----7---6---6--5-6-7-------------|
A:-0---0---0---------7---0----0---0---0-----------------------|
E:------------------------------------------------------------|
Repeat figure 1. with
I will not tell you what I did... It doesn't matter now
I will not tell you how weird it is
To know exactly when you're gonna go
Chorus (figure 2.)
I am a killer
E:------------------------------------------------------------|
B:------------------------------------------------------------|
G:------------------------------------------------------------|
D:---4---5-4-2----------------------------2--4-2-0------------|
A:-2---2---------4---5-4-2---5---7-5-4--0--0------------------|
E:-------------2---2-------3---3------------------------------|
I'm gonna get what I deserve
E:------------------------------------------------------------|
B:------------------------------------------------------------|
G:------------------------------------------------------------|
D:----4---5-4-2-----------------------------------------------|
A:--2---2---------4---5-4-2---5---7-5-4---4--5-4-2------------|
E:--------------0---0-------3---3-------2---2-----------------|
I am a killer
E:------------------------------------------------------------|
B:------------------------------------------------------------|
G:------------------------------------------------------------|
D:---4---5-4-2----------------------------2--4-2-0------------|
A:-2---2---------4---5-4-2---5---7-5-4--0--0------------------|
E:-------------2---2-------3---3------------------------------|
They're gonna fry my each and every nerve (end fig.2)
E:------------------------------------------------------------|
B:------------------------------------------------------------|
G:------------------------------------------------------------|
D:----4---5-4-2-----------------------------------------------|
A:--2---2---------4---5-4-2---5---7-5-4---4--5-4-2------------|
E:--------------0---0-------3---3-------2---2-----------------|
E:------------------------------------------------------------|
B:------------------------------------------------------------|
G:--------------------0-0-0-----------------------------------|
D:---------------2-------------------2--7-5-7-8-7-5-----------|
A:---------------2--/5-5-5-----------2--7-5-7-8-7-5-----------|
E:------0--0-0-0-0----------0--0-0-0-0------------------------|
/\/\/\/\/
E:------------------------------------------------------------|
B:------------------------------------------------------------|
G:--------------------0-0-0-----------------------------------|
D:---------------2-------------------2--7-5-7-----------------|
A:---------------2--/5-5-5-----------2--7-5-7-8---------------|
E:------0--0-0-0-0----------0--0-0-0-0------------------------|
E:------------------------------------------------------------|
B:------------------------------------------------------------|
G:--------------------0-0-0-----------------------------------|
D:---------------2-------------------2--7-5-7-8-7-5-----------|
A:---------------2--/5-5-5-----------2--7-5-7-8-7-5-----------|
E:------0--0-0-0-0----------0--0-0-0-0------------------------|
E:------------------------------------------------------------|
B:------------------------------------------------------------|
G:--------------------0-0-0-----------------------------------|
D:---------------2-------------------2--7-5-7-8-8----7--------|
A:---------------2--/5-5-5-----------2--7-5-7-8-8----5--------|
E:------0--0-0-0-0----------0--0-0-0-0------------------------|
Repeat figure 1. with
It is not the soul I sell, it's not the pain from hell
It is not the fear of dying, of that I was never afraid
I will see you all in hell, isn't that where we all must go?
Gazing at the iron door, while time is slipping away
What's really driving me insane
Is what to do with my final hour
Repeat fig.2 (chorus)
E:-----------------------------------|
B:-----------------------------------|
G:-2------5-------4------------------|
D:-2------5-------4----5-------------|
A:-0------3-------2----5-------------|
E:---------------------3-------------|
I've got less than an hour to kill
E:------------------------------------------------------------|
B:------------------------------------------------------------|
G:------------------------------------------------------------|
D:------------------------------------------------------------|
A:--5--------------7------------------4-----------------------|
E:------------------------------------------------------------|
I'm looking back at the life I've had to live
E:------------------------------------------------------------|
B:------------------------------------------------------------|
G:------------------------------------------------------------|
D:------------------------------------------------------------|
A:----------------------------------------------5-------------|
E:--------8---------------------------------------------------|
What a waste... what a mess I should have never been born...
E:------------------------------------------------------------|
B:------------------------------------------------------------|
G:------------------------------------------------------------|
D:------------------------------------------------------------|
A:-------7-----------------------------4-----------------3----|
E:---------------------6--------------------------------------|
Guitar solo
E:-22-20-19----------20-19-17----------19-17-15---------------|
B:----------22-20-19----------20-19-17----------19-17-15------|
G:------------------------------------------------------------|
D:------------------------------------------------------------|
A:------------------------------------------------------------|
E:------------------------------------------------------------|
E:-17-15-14-----------15-13-12-----------17-15-14-------------|
B:----------17-15-14-----------15-13-12-----------17-15-14----|
G:------------------------------------------------------------|
D:------------------------------------------------------------|
A:------------------------------------------------------------|
E:------------------------------------------------------------|
E:-15-13-12----------13-12-10----------15-13-12---------------|
B:----------15-13-12----------13-12-10----------15-13-12------|
G:------------------------------------------------------------|
D:------------------------------------------------------------|
A:------------------------------------------------------------|
E:------------------------------------------------------------|
E:-13-12-10-----------12-10-8---------10-8-7------------------|
B:----------13-12-10----------12-10-8--------10-8-7-----------|
G:------------------------------------------------------------|
D:------------------------------------------------------------|
A:------------------------------------------------------------|
E:------------------------------------------------------------|
end solo
E:-10-8-7-----------------------------------------------------|
B:--------10-8-7---)---)--------------------------------------|
G:---------------10--10---------------------------------------|
D:------------------------------------------------------------|
A:------------------------------------------------------------|
E:------------------------------------------------------------|
E:--------------10-12-10--------------------------------------|
B:-----------13----------13-12-10----)------------------------|
G:--------------------------------11--------------------------|
D:------------------------------------------------------------|
A:------------------------------------------------------------|
E:-0\--dive---------------------------------------------------|
Repeat figure 1 with
I hear them coming down the hall
I know they're coming for me
I don't need that silly Priest
Oh, just get on with the show
Repeat chorus (figure 2.)
and go back to beginning riff..........




Ваше мнение



Капча