KING DIAMOND THE INVISIBLE GUESTS RYTHM SECTIONS
tabbed by, serkan gunturk, jason miniaci, mikko laakso
riff-1
E-|-------------------------------------------------------------------------|
B-|-------------------------------------------------------------------------|
G-|-------------------------------------------------------------------------|
D-|-------------------------------------------------------------------------|
A-|-0-0-0-8-0-0-7-0-0-0-0-8-0-0-7-0-0-0-0-8-0-0-7-0-7-7-7-8-8-8-7-7---------|
E-|-|---------------|---------------|---------------|-----------------------|
E-|-------------------------------------------------------------------------|
B-|-------------------------------------------------------------------------|
G-|-------------------------------------------------------------------------|
D-|-------------------------------------------------------------------------|
A-|-0-0-0-8-0-0-7-0-0-0-0-8-0-0-7-0-0-0-0-8-0-0-7-0-7-7-7-8-8-8-7-7---------|
E-|-|---------------|---------------|---------------|-----------------------|
riff-2
E-|-------------------------------------------------------------------------|
B-|-------------------------------------------------------------------------|
G-|-------------------------------------------------------------------------|
D-|-------------------------------------------------------------------------|
A-|-|---------------|---------------|---------------|-----------------------|
E-|-0-0-0-8-0-0-7-0-0-0-0-8-0-0-7-0-0-0-0-8-0-0-7-0-7-7-7-8-8-8-7-7---------|
E-|-------------------------------------------------------------------------|
B-|-------------------------------------------------------------------------|
G-|-------------------------------------------------------------------------|
D-|-------------------------------------------------------------------------|
A-|-|---------------|---------------|---------------|-----------------------|
E-|-0-0-0-8-0-0-7-0-0-0-0-8-0-0-7-0-0-0-0-8-0-0-7-0-7-7-7-8-8-8-7-7---------|
play
riff-1
riff-3
E-|------------------------------------|------------------------------------|
B-|------------------------------------|------------------------------------|
G-|------------------------------------|------------------------------------|
D-|---------------------------------10-|---------------------------------10-|
A-|-2---9-8-------------2---9-8-----8--|-2---9-8-------------2---9-8-----8--|
E-|-0-0-7-6-0-0-2h3-2h3-0-0-7-6-0-0-8--|-0-0-7-6-0-0-2h3-2h3-0-0-7-6-0-0-8--|
play
riff-1, riff-2, riff-1, riff-3 (2 times),
riff-1, riff-2, riff-1, riff-3 (2 times),
riff-4
E-|-------------------------------------------------------------------------|
B-|-------------------------------------------------------------------------|
G-|-------------------------------------------------------------------------|
D-|-4-4-6-7-9-9-11-12-11-4-4-6-7-6-6-6---7-6-4------------------------------|
A-|-2-2-4-5-7-7-9--10-9--2-2-4-5-4-4-4-4-5-4-2------------------------------|
E-|------------------------------------2------------------------------------|
E-|-------------------------------------------------------------------------|
B-|-------------------------------------------------------------------------|
G-|-------------------------------------------------------------------------|
D-|-4-4-6-7-9-9-1112-11-4-4-6-7-6-6-6-6-6-5---------------------------------|
A-|-2-2-4-5-7-7-9-10-9--2-2-4-5-4-4-4-4-4-3---------------------------------|
E-|-------------------------------------------------------------------------|
play
riff-1, riff-2, riff-1, riff-3 , riff-4
riff-5
E-|-------------------------------------------------------------------------|
B-|-------------------------------------------------------------------------|
G-|-------------------------------------------------------------------------|
D-|-------------------------------------------------------------------------|
A-|---------3-------3---5---------3-------3-2-------------------------------|
E-|-2-2-2-2---2-2-2---3---2-2-2-2---2-2-2---0-------------------------------|
E-|-------------------------------------------------------------------------|
B-|-------------------------------------------------------------------------|
G-|-------------------------------------------------------------------------|
D-|-------------------------------------------------------------------------|
A-|---------3-------3---5---------3-------3-2-------------------------------|
E-|-2-2-2-2---2-2-2---3---2-2-2-2---2-2-2---0-------------------------------|
E-|-------------------------------------------------------------------------|
B-|-------------------------------------------------------------------------|
G-|-------------------------------------------------------------------------|
D-|-------------------------------------------------------------------------|
A-|---------6-------6---8---------6-------6-5-------------------------------|
E-|-5-5-5-5---5-5-5---6---5-5-5-5---5-5-5---3-------------------------------|
E-|-------------------------------------------------------------------------|
B-|-------------------------------------------------------------------------|
G-|-------------------------------------------------------------------------|
D-|-------------------------------------------------------------------------|
A-|---------6-------6---8---------6-------6-5-------------------------------|
E-|-5-5-5-5---5-5-5---6---5-5-5-5---5-5-5---3-------------------------------|
riff-6
E-|-------------------------------------------------------------------------|
B-|-------------------------------------------------------------------------|
G-|-------------------------------------------------------------------------|
D-|-------------------------------------------------------------------------|
A-|-7-7-7-7-7-7-7-7-6-6-6-6-6-6-6-6-5-5-5-5-5-5-5-5-4-4-4-4-4-4-4-4---------|
E-|-|-------|-------|-------|-------|-------|-------|-------|---------------|
E-|-------------------------------------------------------------------------|
B-|-------------------------------------------------------------------------|
G-|-------------------------------------------------------------------------|
D-|-------------------------------------------------------------------------|
A-|-7-7-7-7-7-7-7-7-6-6-6-6-6-6-6-6-5-5-5-5-5-5-5-5-------------------------|
E-|-|-------|-------|-------|-------|-------|-------7-0-0-0-0-0-------------|
play
riff-5, riff-6
GUITAR-1
E-|-------------------------------------------------------------------------|
B-|-------------------------------------------------------------------------|
G-|-----------------------------------2-2---2-2-----2-----------------------|
D-|-----------------------------------2-2---2-2-----2-----------------------|
A-|-0-0-0-8-0-0-7-0-0-0-0-8-0-0-7-0-0-0-0---0-0-----0-----------------------|
E-|-|---------------|---------------|---------------------------------------|
GUITAR-2
E-|-------------------------------------------------------------------------|
B-|-------------------------------------------------------------------------|
G-|-----------------2-----------------2-2---2-2-----2-----------------------|
D-|-----------------2-----------------2-2---2-2-----2-----------------------|
A-|-----------------0-----------------0-0---0-0-----0-----------------------|
E-|-------------------------------------------------------------------------|
play
riff-1, riff-2, riff-3,riff-4
riff-7
E-|-----------------|-------------------|-----------------|--------------------|
B-|-----------------|-------------------|-----------------|--------------------|
G-|-----------------|-------------------|-----------------|--------------------|
D-|-----------------|-------------------|-----------------|--------------------|
A-|----------3---3--|---------3---2--2--|----------3---3--|----------3---5--2--|
E-|--2-2-2-2---2----|-2-2-2-2---2----0--|--2-2-2-2---2----|--2-2-2-2---2----0--|
play
riff-7, riff-4, riff-5,
riff-6
E-|-------------------------------------------------------------------------|
B-|-------------------------------------------------------------------------|
G-|-------------------------------------------------------------------------|
D-|-------------------------------------------------------------------------|
A-|-7-7-7-7-7-7-7-7-6-6-6-6-6-6-6-6-5-5-5-5-5-5-5-5-4-4-4-4-4-4-4-4---------|
E-|-|-------|-------|-------|-------|-------|-------|-------|---------------|
E-|-------------------------------------------------------------------------|
B-|-------------------------------------------------------------------------|
G-|-------------------------------------------------------------------------|
D-|-------------------------------------------------------------------------|
A-|-7-7-7-7-7-7-7-7-6-6-6-6-6-6-6-6-5-5-5-5-5-5-5-5-----------2(D-I-V-E)----|
E-|-|-------|-------|-------|-------|-------|-------7-0-0-0-0-0-------------|
E-|-----------------------------------------|
B-|-----------------------------------------|
G-|-----------------------------------------|
D-|-----------------------------------------|
A-|---7-9---5-7-----------------------------|
E-|---------------5-7-------3---0-(D-I-V-E)-|
i have the solos, to this one as well, i will try to add them soon.




Ваше мнение



Капча