@SONG: Haunted
=======
(music: Michael Denner & King Diamond; lyrics: King Diamond)
Stay Away, Molly's Soul Keeps Returning
Every Night To The Attic Shrine
Never Alone, Living Dolls Out Of Nowhere
Crying Out: "Mommy Why"
The House Is Forver Haunted
Nothing You Can Do
Molly Is Living There With Her Dolls
And They Are ALive...Wait And See
Solo: Mike
Stay Away, Mrs. Jane, Molly's Mother
Slowly Went...Insane
The House Is Forver Haunted
Nothing You Can Do
Molly Is Living There With Her Dolls
And They Are Alive...Wait And See
Solo: Andy
"Mommy...Mommy..."
I'll Destroy You

****************************************************************
For more King Diamond/Mercyful Fate tablature and other material
visit Justin's Home of King Diamond.....
http://www.geocities.com/SunsetStrip/Alley/6066/index.html
or you can mail me at
[email protected]
****************************************************************
Tabbed by Justin: [email protected]
Subject: TAB: King Diamond----Haunted
Legend:
-------
P.M--- mute
( bend up
) bend down
H hammer on
Harm Harmonic
P pull off
A.H artificial harmonic
/\/\ vibrato
/ slide up
\ slide down
T tap
// repeat phrase
Title: "Haunted", taken from the King Diamond album 'Fatal Portrait'.
(music: Michael Denner & King Diamond; lyrics: King Diamond)
Figure 1. end fig.1
E:-----------------------------------------------------|
B:-----------------------------------------------------|
G:-----------------------------------------------------|
D:-2-----2-----2---------5-----4-----5-----------------|
A:-2-----3-----2---------5-----4-----5-----------------|
E:-0-0-0-0-0-0-0-0-0-0-0---0-0---0-0---0-0-0-0---------|
E:-----------------------------------------------------|
B:-----------------------------------------------------|
G:-----------------------------------------------------|
D:-2-----2-----2---------5-----4-----5-----------------|
A:-2-----3-----2---------5-----4-----5-----------------|
E:-0-0-0-0-0-0-0-0-0-0-0---0-0---0-0---0-0-0-0---------|
Play with attached piece
E:-----------------------------------------------------|
B:-----------------------------------------------------|
G:-----------------------------------------------------|
D:-2-----2-----2---------5-----4-----5-----------------|
A:-2-----3-----2---------5-----4-----5-----------------|
E:-0-0-0-0-0-0-0-0-0-0-0---0-0---0-0---0-0-0-0---------|
| |
E:-----------------------------------------------------|
B:-----------------------------------------------------|
G:-----------------------------------------------------|
D:-9---------------------------------------------------|
A:-7---------------------------------------------------|
E:-0---------------------------------------------------|
Play with attached piece
E:-----------------------------------------------------|
B:-----------------------------------------------------|
G:-----------------------------------------------------|
D:-2-----2-----2---------5-----4-----5-----------------|
A:-2-----3-----2---------5-----4-----5-----------------|
E:-0-0-0-0-0-0-0-0-0-0-0---0-0---0-0---0-0-0-0---------|
| |
E:-----------------------------------------------------|
B:-----------------------------------------------------|
G:-----------------------------------------------------|
D:-4---------------------------------------------------|
A:-2---------------------------------------------------|
E:-----------------------------------------------------|
Play Figure 1. two more times.
Figure 2.
Acoustic guitar
E:-----------------------------------------------------|
B:-----------------------------------------------------|
G:-----------------------------------------------------|
D:-----4-----4-----4-----4-------4-----4-----4-----4---|
A:---2-----2-----2-----2-------2-----2-----2-----2-----|
E:-0-----2-----0-----2-----3-0-----2-----0-----2-----3-|
Elecric guitar end Figure 2. Back to Figure 1. once more.
E:-----------------------------------------------------|
B:-----------------------------------------------------|
G:-----2-----------------------------------------------|
D:-----2-----------------------------------------------|
A:-0-0-0-----------------------------------------------|
E:-------0-0-------------------------------------------|
Play Figure 1. once more
Figure 3.
Stay Away,
E:-----------------------------------------------------|
B:-----------------------------------------------------|
G:-----------------------------------------------------|
D:--9--------------------------4-----------------------|
A:--7--------------------------2-----------------------|
E:--0--------------------------------------------------|
Molly's Soul Keeps Returning
E:-----------------------------------------------------|
B:-----------------------------------------------------|
G:-5-----4-----5---------5-----4-----5-----7-----------|
D:-5-----4-----5---------5-----4-----5-----7-----------|
A:-0-0-0-0-0-0-0-0-0-0-0-0-0-0-0-0-0-0-0-0-0-0-0-0-0---|
E:-----------------------------------------------------|
Every Night To The Attic Shrine (end fig.3)
E:-----------------------------------------------------|
B:-----------------------------------------------------|
G:-5-----4-----5---------5-----4-----5-----7-----------|
D:-5-----4-----5---------5-----4-----5-----7-----------|
A:-0-0-0-0-0-0-0-0-0-0-0-0-0-0-0-0-0-0-0-0-0-0-0-0-0---|
E:-----------------------------------------------------|
Play Figure 1 through to 3. again with
Never Alone, Living Dolls Out Of Nowhere
Crying Out: "Mommy Why"
Figure 4.
The House Is Forver Haunted Nothing You Can Do
E:-----------------------------------------------------|
B:-----------------------------------------------------|
G:-----------------------------------------------------|
D:-11----------12--------------7-----------------------|
A:-9-----------10--------------5-----------------------|
E:-----------------------------------------------------|
Play Figure 1 once more
Molly Is Living There With Her
E:-----------------------------------------------------|
B:-----------------------------------------------------|
G:-----------------------------------------------------|
D:--12---------------7---------------------------------|
A:--10---------------5---------------------------------|
E:-----------------------------------------------------|
Dolls.............. And They Are Alive
E:-----------------------------------------------------|
B:------------------------------------7----------------|
G:------------------------------------6----------------|
D:---4----------2----------4----------4----------------|
A:---2----------0----------2---------------------------|
E:-----------------------------------------------------|
Wait And See (end fig 4.) SOLO
E:-----------------------------------------------------|
B:------------------------p--------------7-8-7-8---\/\-|
G:-------------------5-4-5-4----------7-9--------9-----|
D:-----------------h---------7-5-7-7-9-----------------|
A:----------------5-7----------------------------------|
E:-----------------------------------------------------|
E:-10-8-7-------------------------------(-/\/--7-8-7---|
B:--------10-8-7-10-8-7-10-8-7--/\/-8-10------------10-|
G:-----------------------------9-----------------------|
D:-----------------------------------------------------|
A:-----------------------------------------------------|
E:-----------------------------------------------------|
p p p p
E:-7---(-p---17-14---14-11---11-8---8-5-/\/\/----------|
B:---10---8-------16------13-----10----7---------------|
G:---------9------------------------------------12-14--|
D:-------------------------------------------/14-------|
A:-----------------------------------------------------|
E:-----------------------------------------------------|
E:------p--h-------------------------------------------|
B:-12-13-12-13--------------h--p-----------------------|
G:------------14-12-11-12-11-12-11---------------------|
D:--------------------------------14-------------------|
A:----------------------------------/12/10/9\10--------|
E:-----------------------------------------------------|
P.M------- end solo
E:------------------------------(---(---------/\/\--/\/|
B:-----------------8----/\/\--10--10--8-10-8-7---------|
G:----------------7-7-9------9--------------------8-9--|
D:-----------5-7/9-------------------------------------|
A:--9-7-5-7-9------------------------------------------|
E:-----------------------------------------------------|
Play Figure 1 through 4. Once more with
Stay Away, Mrs. Jane, Molly's Mother
Slowly Went...Insane
Solo Harm.
E:-----------------------------------------------------|
B:----bend up and down with trem and then up 2 steps---|
G:-------5---------------------------------------------|
D:-----------------------------------------------------|
A:-----------------------------------------------------|
E:-----------------------------------------------------|
E:-----------------------------------------------------|
B:---------------------------------------15-17--15-17--|
G:------------------------14-16--14-16-17-----17-------|
D:------------14--14-16-17-----17----------------------|
A:----14-15-17--17-------------------------------------|
E:--17-------------------------------------------------|
E:-15-17-19-(trill 19-22 and slowly gradually with trem|
B:-----------------------------------------------------|
G:-----------------------------------------------------|
D:-----------------------------------------------------|
A:-----------------------------------------------------|
E:-----------------------------------------------------|
E:-22/24--19-22-19----19-------------------------------|
B:-----------------22----22-19-22-19--(-19---(p--------|
G:----------------------------------21-----21--19---19-|
D:-----------------------------------------------21----|
A:-----------------------------------------------------|
E:-----------------------------------------------------|
A.H
E:-----------------------------------------------------|
B:-----------------------------------------------------|
G:-21\--14-17--14--------------------------------------|
D:-----------17--17-16-17-16-14--16-14--14-------------|
A:-----------------------------17-----17--17-15-14-15--|
E:-----------------------------------------------------|
E:-----------------------------------------------------|
B:-----------------------------------------------------|
G:-----------------------------------------------------|
D:-----------------------------------------------------|
A:-14-----/\/\-----------------------------------------|
E:---17-17-----10-12-14-10-12-14-15-17-14-15-17-15-17--|
E:-----------------------------------------------------|
B:-----------------------------------------------------|
G:------------------------------16-16-16-16-12-12-12-12|
D:------------------------(--(-------------------------|
A:--14-15---14-15-17-15-17-17--------------------------|
E:--------17-------------------------------------------|
E:-----------------------------------------------------|
B:--------------------------------------------------\/\|
G:-17-17-17-17-14-14-14-14--19--16---21--16-16-16-16---|
D:-----------------------------------------------------|
A:-----------------------------------------------------|
E:-----------------------------------------------------|
Bend trem slightly while playing
E:-----------------------------------------------------|
B:---p---h-p--h--p--h--p--h--p-h--h--p----\/\/---------|
G:-19-16-17-14-16-12-14-11-12-9-11-12-9/21-------------|
D:-----------------------------------------------------|
A:-----------------------------------------------------|
E:-----------------------------------------------------|
"Mommy...Mommy..."
Acoustic guitar (play to end)
E:-----------------------------------------------------|
B:-----------------------------------------------------|
G:-----------------------------------------------------|
D:-----4-----4-----4-----4-------4-----4-----4-----4---|
A:---2-----2-----2-----2-------2-----2-----2-----2-----|
E:-0-----2-----0-----2-----3-0-----2-----0-----2-----3-|
****************************************************************
For more King Diamond/Mercyful Fate tablature and other material
visit Justin's Home of King Diamond.....
http://www.geocities.com/TimesSquare/1667/index.html
or you can mail me at
[email protected]
****************************************************************




Ваше мнение



Капча