@SONG: Halloween
=========
(music: King Diamond & Michael Denner; lyrics: King Diamond)
Oh It's Halloween
Every Night To Me Is Halloween
Like An Ancient Scene
You Know Just What I Mean
Halloween You Are My Pride
Halloween Not Just A Dream
The Moon Is Full, Another Perfect Day Has Began
Like A Demon's Eye, That Devil's Eye
Will We Ever Die
Solo: Mike
Halloween You Are My Pride
Halloween Not Just A Dream
Solo: Andy
Every Night Will Be Another Evil Scene
Like In Horror Dreams I Want
I Command You To Scream
Halloween You Are My Pride
Halloween Not Just A Dream
Halloween...Halloween...

"Halloween" by King Diamond from the album "Fatal Portrait".
transcribed and edited by
Serkan Gunturk
[email protected]
[email protected]
[email protected]---

Riff 1
e:----------------------------------------------------------|
B:----------------------------------------------------------|
G:----------------------------------------------------------|
D:--9-------10------9-------7---9-------10------12------14--|
A:--7-------8-------7-------5---7-------8-------10------12--|
E:------0-------0-------0-----------0-------0-------0-------|

e:--------------------------------------||
B:--------------------------------------||
G:--------------------------------------||
D:--9-------10------9-----------7---5---||
A:--7-------8-------7-----------5---3---||
E:------0-------0-------0---0-----------||

Riff 2
e:------------------------------------------------------------------|
B:------------------------------------------------------------------|
G:------------------------------------------------------------------|
D:--9---9-------10------9-------7---9---9-------10------12------14--|
A:--7---7-------8-------7-------5---7---7-------8-------10------12--|
E:----------0-------0-------0---------------0-------0-------0-------|

e:------------------------------------------||
B:------------------------------------------||
G:------------------------------------------||
D:--9---9-------10------9-----------7---5---||
A:--7---7-------8-------7-----------5---3---||
E:----------0-------0-------0---0-----------||

Riff 3
e:------------------------------------------------------------||
B:------------------------------------------------------------||
G:--4---------------------------------------------------------||
D:--4-------5---7---5---9---4---3---7---5---9---4---3---7---5-||
A:--2---2---3---5---3---7---2---3---5---3---7---2---3---5---3-||
E:------------------------------1-------------------1---------||

Riff 4 (Almost the same with the 1st riff except the last part)
e:------------------------------------------------------------------|
B:------------------------------------------------------------------|
G:------------------------------------------------------------------|
D:--9---9-------10------9-------7---9---9-------10------12------14--|
A:--7---7-------8-------7-------5---7---7-------8-------10------12--|
E:----------0-------0-------0---------------0-------0-------0-------|

e:-------------------------------------------------||
B:-------------------------------------------------||
G:-------------------------------------------------||
D:--9---9-------10------9-----------7---5---2---2--||
A:--7---7-------8-------7-----------5---3---0---0--||
E:----------0-------0-------0---0------------------||

Riff 5
e:------------------------------------------------------|
B:------------------------------------------------------|
G:------------------------------------------------------|
D:--4---4---4---4---5---4---2---4---4---4---4---7---9---|
A:--2---2---2---2---3---2---0---2---2---2---2---5---7---|
E:------------------------------------------------------|
Chorus

e:----------------------------------------------------------||
B:----------------------------------------------------------||
G:----------------------------------------------------------||
D:--4---4---4---4---5---4---2---3---3---3---3---3---3---3---||
A:--2---2---2---2---3---2---0---1---1---1---1---1---1---1---||
E:----------------------------------------------------------||

Play riffs 2-3-4 again Here comes the solo(s)
e:--------------------------||------------------------||
B:--------------------------||------------------------||
G:--------------------------||------------------------||
D:--------------------------||------------------------||
A:--------------------------||------------------------||
E:--------------------------||------------------------||

Finale
e:--------------------------------------------------------------|
B:--------------------------------------------------------------|
G:--------------------------------------------------------------|
D:--------------------------------------------------------------|
A:--5\4-----------4-----------5\4-------4-------2-------5-------|
E:--3\2---2---2---2---2---2---3\2---2---2---2---0---0---3---3---|

e:--------------------------------------------------------------------||
B:--------------------------------------------------------------------||
G:--------------------------------------------------------------------||
D:----------------------------5---4-----------------------------------||
A:--5\4-----------4-----------3---2-------2-------2---3---5---3---2---||
E:--3\2---2---2---2---2---2-----------3-------3-----------------------||
Serkan Gunturk
[email protected]
[email protected]


Ваше мнение



Капча