"From the Other Side" by King Diamond from the album
"The Spider's Lullabye"
Transcribed by Serkan Gunturk
[email protected]
[email protected]
[email protected]---
note: You have to figure out the timing, sorry.
Riff 1
e:-----------------------------------------------------------------|
B:-----------------------------------------------------------------|
G:-----------------------------------------------------------------|
D:---------------------------------7-------------------------------|
A:-7---9---9---9---9---9---9---9-------9---9---9---9---9---9---9---|
E:-----------------------------------------------------------------|

e:--------------------------------------------|
B:--------------------------------------------|
G:--------------------------------------------|
D:--------------------------------6---6---7---|
A:7---9---9---9---9---9---9---9---------------|
E:--------------------------------------------|

e:-----------------------------------------------------------------|
B:-----------------------------------------------------------------|
G:-----------------------------------------------------------------|
D:---------------------------------7-------------------------------|
A:-7---9---9---9---9---9---9---9-------9---9---9---9---9---9---9---|
E:-----------------------------------------------------------------|

e:--------------------------------------------||
B:--------------------------------------------||
G:--------------------------------------------||
D:--------------------------------------------||
A:7---9---9---9---9---9---9---9---7---7---6---||
E:--------------------------------------------||

Riff 2
e:-----------------------------------------------------------------|
B:-----------------------------------------------------------------|
G:-----------------------------------------------------------------|
D:---------------------------------9-------------------------------|
A:-9---11--11--11--11--11--11--11------11--11--11--11--11--11--11--|
E:-----------------------------------------------------------------|

e:----------------------------------------------|
B:----------------------------------------------|
G:----------------------------------------------|
D:----------------------------------9---9---11--|
A:--9---11--11--11--11--11--11--11--7---7---9---|
E:----------------------------------------------|

e:-----------------------------------------------------------------|
B:-----------------------------------------------------------------|
G:-----------------------------------------------------------------|
D:---------------------------------9-------------------------------|
A:-9---11--11--11--11--11--11--11------11--11--11--11--11--11--11--|
E:-----------------------------------------------------------------|

e:----------------------------------------||
B:----------------------------------------||
G:----------------------------------------||
D:--------------------------------9---8---||
A:9---11--11--11--11--11--11--11--7---6---||
E:----------------------------------------||

Riff 3 (2 times)
e:----------------------------------------------------------------------||
B:----------------------------------------------------------------------||
G:----------------------------------------------------------------------||
D:--------------------------------4-6-------------------------------4-3-||
A:--------------------------------2-4-------------------------------2-1-||
E:--2444-4444-4444-4444-4444-4444-----2444-4444-4444-4444-4444-4444-----||

Riff 4 (2 times) Play Riff 2 again Play riff 3
e:-------------------------------||--------------------||--------------||
B:-------------------------------||--------------------||--------------||
G:-------------------------------||--------------------||--------------||
D:--6-4--------------------------||--------------------||--------------||
A:--4-2---------------------7-9--||--------------------||--------------||
E:------4444-4444-4444-4444-5-7--||--------------------||--------------||

Play Riff 4 Solo is over this
e:--------------||------------------------------------------||
B:--------------||------------------------------------------||
G:--------------||------------------------------------------||
D:--------------||--6-6-4-6-------------6-6-4-6-------------||
A:--------------||--4-4-2-4-6-7-----4-6-4-4-2-4-6-7---------||
E:--------------||----------4-5-4-2-------------4-5-5-7-7-7-||

Riff 5 Repeat last two
e:--------------------------------------------------||-----------------||
B:--------------------------------------------------||-----------------||
G:--------------------------------------------------||-----------------||
D:--9-9-7-9------12-11-9-7-9-9-7-9------------------||-----------------||
A:--7-7-5-7-9-10-10-9--7-5-7-7-5-7-9-10-10-10-12-12-||-----------------||
E:----------7-8--------------------7-8--8--8--10-10-||-----------------||

e:-------------------------------------||
B:-------------------------------------||
G:-------------------------------------||
D:-------------------------------------||
A:-------------------------------------||
E:-2222222222222....-------------------||
I swear by the moon and the devil !

Riff 6
e:----------------------------------------------------------------------||
B:----------------------------------------------------------------------||
G:----------------------------------------------------------------------||
D:----------------------------------------------------------------------||
A:-------------------------------22-6-------------------------------77-6||
E:-4555-5555-7555-5555-2444-4444-00-4-4555-5555-7555-5555-2444-4444-55-4||

Transcribed by Serkan Gunturk
[email protected]
[email protected]




Ваше мнение



Капча