From alt.guitar.tab Fri Aug 26 15:02:42 1994
Subject: TAB: "Coming home" King Diamond
Hi, I don't know if you ever heard of King Diamond, he is one of my favorite
vocalists and composers. I can't go to sleep, it's too hot in here, so I
decided to work on it - I got it from my memory, so don't blame for mistakes,
and if you find any, let me know, Ok? Thanks.
E:5-----------3-----------0--0--0-----1--0-----------------------------------|
B:---5-----------3--------1--1--1-----------3--1-----------------------------|
G:------5-----------4-----0--0--0-----------------4--2--1-----1--2--2--------|
D:---------------------------2-----------------------------------------------|
A:------------------------3-----3-----------------------------------0--------|
E:5-----------3-----------------------1-----3-----4-----------0--------------|
E:10-----------8-----------8---8---8-----6--5--------------------------------|
B:---10-----------8-------10--10--10-----------8--6--------------------------|
G:------10-----------9----10--10--10-----------------9--7--6-----6--7--7-----|
D:---------------------------------------------------------------------0-----|
A:-------------------------8---8---8-----------------------------0-----------|
E:10-----------8-------------------------6-----8-----9-----------------------|

These two go on and on in cycle:
E:------0-----------0-----------0-----------0-----------0-----------0--------|
B:----6---6-------6---6-------6---6-------6---6-------6---6-------6---6------|
G:--7-------7---7-------7---7-------7---7-------7---7-------7---7-------7----|
D:0-----------0-----------8-----------8-----------9-----------9--------------|
A:---------------------------------------------------------------------------|
E:---------------------------------------------------------------------------|
E:-----------|
B:----6-----5|
G:--7-----6--|
D:8-----7----|
A:-----------|
E:-----------|
I hope to find King Diamond fans out there! Drop me a line.
Thanx,
Freddy.




Ваше мнение



Капча