================================================================================
Title : A Secret
Artist : King Diamond
Album : Voodoo
Transcribed by : Dave Zatuchney [email protected]
[email protected]===============
Legend
------
h = hammer-on
p = pull-off
b = bend
r = bend release
/ = slide up/down
= natural harmonic
[5] = artifical harmonic
~ = vibrato
tr = trill
E5 E5
Riff A Gtr 2 Plays Riff B 2x Riff B (Both Guitars)
E|-----------------------------------|---|---|-------|------------------
B|-----------------------------------|---|---|-------|------------------
G|-----------------------------------|---|---|-------|------------------
D|-----------------------------------|---|---|-------|------------------
A|---------------6-6-6--9-9-9--6-6---|-2-|-2-|-2-1~--|------------------
E|-5-5-5--8-8-8--------------------8-|-0-|-0-|-------|-7--0-0-0-0-0--10-
E|------------|---------------------------------|-----------------------
B|------------|---------------------------------|-----------------------
G|------------|---------------------------------|-----------------------
D|------------|---------------------------------|-----------------------
A|------------|---------------------------------|-----------------------
E|--0-0-0-0-0-|-7---0-0-0-0-0--3-0-0-0--2-0-0-0-|-7--0-0-0-0-0--10--0-0-

Play Riff A 1x Riff C (Verse)
E|-------|----------------------|--------------|--------------|--------
B|-------|----------------------|--------------|--------------|--------
G|-------|----------------------|--------------|--------------|--------
D|-------|----------------------|--------------|-7------7-----|-7------
A|-------|----------------------|--------------|---0-0----0-0-|---0-0--
E|-0-0-0-|-7--0-0-0-0-0--7-6~---|--------------|--------------|--------
E|------|--------------|----------------|---------------|-------------|-
B|------|--------------|----------------|---------------|-------------|-
G|------|--------------|----------------|---------------|-------------|-
D|-8--5-|-7------7-----|-7------7-6-----|--7------7-----|-7------8--5-|-
A|------|---0-0----0-0-|---0-0------8-7-|----0-0----0-0-|---0-0-------|-
E|------|--------------|----------------|---------------|-------------|-
B5 D5
Riff D
E|--------------|---------------|--------------------------------------
B|--------------|---------------|--------------------------------------
G|--------------|---------------|--------------------------------------
D|-7------7-----|-7-------------|--------------------------------------
A|---0-0----0-0-|---0-0--8-7~---|-9-9-9--9-9-9--9--12-12-12--12-12-12--
E|--------------|---------------|-7-7-7--7-7-7--7--10-10-10--10-10-10--

Bb5
Play RiffD2x,C1x,D2x
E|------------------------------------------|--------------------------
B|------------------------------------------|--------------------------
G|------------------------------------------|--------------------------
D|------------------------------------------|--------------------------
A|-12--8-8-8--8-8-8--8-------8-11-8----8----|--------------------------
E|-10--6-6-6--6-6-6--6--7-10--------10---10-|--------------------------
Dm C Bm Bb
Riff E Keyboard plays chords above staff Play Riff E3x,B2x,A1x,C1x,D2x,E3x
E-|-----|----|---|---|---------------------|---------------------------
B-|-----|----|---|---|---------------------|---------------------------
G-|-----|----|---|---|---------------------|---------------------------
D-|--12-|-10-|-9-|-8-|---------------------|---------------------------
A-|--12-|-10-|-9-|-8-|---------------------|---------------------------
E-|--10-|--8-|-7-|-6-|---------------------|---------------------------

Riff F
E--------------|--------------------------------------------------------
B--------------|--------------------------------------------------------
G--------------|----------------------------------------8-8-8--11-11-11-
D--------------|-----------------------------7-7-10-10------------------
A--------------|---------------6-6-6--9-9-9-----------------------------
E--------------|-5-5-5--8-8-8-------------------------------------------

Solo Riff G
E|-------|--------------------------------------------|-----------------
B|-------|--------------------------------------------|-----------------
G|--9~---|-------------4------------------------------|------------4----
D|-------|-----------------------------------4--------|-----------------
A|-------|-0-2-2--2-2----2-2-2----0-0-2--2-2----2-2-2-|-0-2-2--2-2----2-
E|-------|--------------------------------------------|-----------------
D5 Bb5 D5 F5 E5 D5 C5 D5 F5 E5 D5 C5 D5
Play Riff G 3x
E|-----------|--------------------|---|---------|-----|---------|-----|-
B|-----------|--------------------|---|---------|-----|---------|-----|-
G|-----------|--------------------|---|---------|-----|---------|-----|-
D|------7----|--------------------|-7-|-10--9-7-|-5-7-|-10--9-7-|-5-7-|-
A|-2-2--5--8-|--------------------|-5-|--8--7-5-|-3-5-|--8--7-5-|-3-5-|-
E|---------6-|--------------------|---|---------|-----|---------|-----|-
F5 E5 D5 C5 D5 F5 E5 D5 C5
E|---------|-----|-----------|---------------------------|--------------
B|---------|-----|-----------|---------------------------|--------------
G|---------|-----|-----------|---------------------------|--------------
D|-10--9-7-|-5-7-|-10--9-7-5-|---------------4-----------|--------------
A|--8--7-5-|-3-5-|--8--7-5-3-|---------------------------|--------------
E|---------|-----|-----------|--0-2-2-2-2-2----2-2-2-2-2-|--0-2-2-2-2-2-

Riff H
E|-------------|--------------------------|-----------------------|----
B|-------------|--------------------------|-----------------------|----
G|-------------|--------------------------|-----------------------|----
D|--4----------|--------------4-----------|--------------4--------|----
A|----4--3-2-0-|--------------------------|----------------4-3~---|----
E|-------------|-0-2-2-2-2-2----2-2-2-2-2-|-0-2-2-2-2-2-----------|-7--
E|--------------------------|--------------------------------|----------
B|--------------------------|--------------------------------|----------
G|--------------------------|--------------------------------|----------
D|--------------------------|--------------------------------|----------
A|--------------------------|--------------------------------|----------
E|-0-0-0-0-0--10--0-0-0-0-0-|-7--0-0-0-0-0--3-0-0-0--2-0-0-0-|-7--0-0-0-

Play Riff H2x,A1x,C1x,D2x,E3x,F1x
E|--------------------|--------|-----------------------------------*|--
B|--------------------|--------|-----------------------------------*|--
G|--------------------|--------|-----------------------------------*|--
D|--------------------|--------|-----------------------------------*|--
A|--------------------|--------|-----------------------------------*|--
E|-0-0--10--0-0-0-0-0-|-7~-7-6-|-----------------------------------*|--
E|-------------
B|-------------
G|-------------
D|-------------
A|-------------
E|-------------




Ваше мнение



Капча