Вообще я не завидую тому, кто это будет играть, но некоторые составные части композиции
заслуживают внимания. Все табы представлены для стандартной настройки гитары.
ЧАСТЬ 1
гитара
- --------------------------------------------------------------
- --------------------------------------------------------------
- --3--x--x--3--x--x--3--x--3--x--3--x--x--3--x--x--3--x--3--x--
- --3--x--x--3--x--x--3--x--3--x--3--x--x--3--x--x--3--x--3--x--
- --3--x--x--3--x--x--3--x--3--x--3--x--x--3--x--x--3--x--3--x--
- --------------------------------------------------------------
бас-гитара
- --------------------------------------------------------------
- --------------------------------3--------3--------3-----3-----
- --------------------------------------------------------------
- -----------------------------------3--3-----3--3-----3-----3--
гитара
- ------------------------------------------------------------------
- ------------------------------------------------------------------
- --3--x--x--3--x--x--3--x--3--x--------------------------3--x--x--3
- --3--x--x--3--x--x--3--x--3--x--------6--------6-----5--3--x--x--3
- --3--x--x--3--x--x--3--x--3--x-----5--------5-----4-----3--x--x--3
- --------------------------------3--------3------------------------
бас и.т.д.
- ------------------------------------------------------------------
- --3--------3--------3-----3-----------6--------6-----5--3--------3
- -----------------------------------5--------5-----4---------------
- -----3--3-----3--3-----3-----3--3--------3-----------------3--3---
- ----------------------------------------------------------------
- --------------------------------------------8/------------------
- --x--x--3--x--3--x-----------------------6------------9--------9
- --x--x--3--x--3--x--------6--4--------5------------8--------8---
- --x--x--3--x--3--x-----5--------3--4------------6--------6------
- --------------------3-------------------------------------------
- -------------------------------------------12--------13-------13
- --------3-----3-----------6--4----------11--------12-------12---
- -----------------------5--------3----10--------10-------10------
- --3--3-----3-----3--3--------------9----------------------------
- ------------------------------------------------------------------
- ------------------------------------------------------------------
- -----8--5--x--x--5--x--x--5--x--5--x--5--x--x--5--x--x--5--x--5--x
- --7-----6--x--x--6--x--x--6--x--6--x--6--x--x--6--x--x--6--x--6--x
- --------5--x--x--5--x--x--5--x--5--x--5--x--x--5--x--x--5--x--5--x
- ------------------------------------------------------------------
- ----12--5--------5--------5-----5-----5--------5--------5-----5---
- -11---------------------------------------------------------------
- -----------5--5-----5--5-----5-----5-----5--5-----5--5-----5-----5
- ------------------------------------------------------------------
- ------------------------------------------------------
- --------------------------8/--------------------------
- -----------------------6------------------------------
- --------6--4--------5---------------10--------10-----9
- -----5--------3--4---------------9---------9------8---
- --3---------------------------7---------7-------------
- -------------------------12---------------------------
- --------6--4----------11-----------10---------10-----9
- -----5--------3----10-----------9----------9------8---
- --3--------------9-----------7----------7-------------
- --------------------------------------------------------------
- --------------------------------------------------------------
- --7--x--x--7--x--x--7--x--7--x--7--x--x--7--x--x--7--x--7--x--
- --7--x--x--7--x--x--7--x--7--x--7--x--x--7--x--x--7--x--7--x--
- --7--x--x--7--x--x--7--x--7--x--7--x--x--7--x--x--7--x--7--x--
- --------------------------------------------------------------
- --7--------7--------7-----7-----7--------7--------7-----7-----
- --------------------------------------------------------------
- -----7--7-----7--7-----7-----7-----7--7-----7--7-----7-----7--
- --------------------------------------------------------------
- ---------------------------------------------------------------
- ----------------------------12/--------------------------------
- ------------------------10---------------13----------13------12
- --------10--8--------9---------------12----------12------11----
- -----9---------7--8--------------10----------10----------------
- --7------------------------------------------------------------
- ----------------------------16---------------------------------
- --------10--8------------15------------6-----------6---------5-
- -----9---------7------14------------5-----------5---------4----
- --7----------------13------------3-----------3-----------------
- -----------------------------------------------------------------
- -----------------------------------------------------------------
- --10--x--x--10--x--x--10--x--10--x--10--x--x--10--x--x--10--x--10
- --11--x--x--11--x--x--11--x--11--x--11--x--x--11--x--x--11--x--11
- --10--x--x--10--x--x--10--x--10--x--10--x--x--10--x--x--10--x--10
- -----------------------------------------------------------------
- ----------------------------------------------------------------
- --3---------3---------3------3------3---------3---------3------3
- ----------------------------------------------------------------
- ------3--3------3--3------3------3------3--3------3--3------3---
- ------------------------------
- ----------------------------8/
- --x-----------------------6---
- --x--------6--4--------5------
- --x-----5--------3--4---------
- -----3------------------------
- ---------------------------12-
- ----------6--4----------11----
- -------5--------3----10-------
- --3--3--------------9---------
ЧАСТЬ 2
гитара/скрипка
- ---------------------------------------------------------------
- --1----1--1----1--1----1--1--0--1----1--1----1--1--1--1--0--1--
- --2----2--2----2--2----2--2--4--2----2--2----2--2--2--2--4--2--
- --3----0--3----0--3----0--3--5--3----0--3----0--3--0--3--5--3--
- ---------------------------------------------------------------
- ---------------------------------------------------------------
бас и.т.д
- ---------------------------------------------------------------
- ----------5-----------------------------5----------------------
- ---------------------------------------------------------------
- --3----3------------------------3----3----------------------3--
- ----------------------------------------------------------------
- --1--1----1--1--1--1--0--1----1--1----1--1--1--1--0-------------
- --2--2----2--2--2--2--4--2----2--2----2--2--2--2--4--5----5--5--
- --0--3----0--3--0--3--5--3----0--3----0--3--0--3--5--6----3--6--
- ----------------------------------------------------------------
- ----------------------------------------------------------------
- ----------------------------------------------------------------
- -----5---------------------------5---------------------------8--
- ----------------------------------------------------------------
- --3----------------------3----3----------------------6----6-----
- -----------------------------------------------------------------
- ---------------------------------------------4----4--4----4--4--4
- --5--5--5--5--7--5----5--5----5--5--5--5--7--5----5--5----5--5--5
- --3--6--3--6--8--6----3--6----3--6--3--6--8--6----3--6----3--6--3
- -----------------------------------------------------------------
- -----------------------------------------------------------------
- -----------------------------------------------------------------
- --------------8----------8----------------8---------8-----------
- -----------------------------------------------------------------
- --6--6-----6-----6----6-------6--6-----6-----6----6-------6--6---

- ------------------------------------------------------------------
- --4--6--4----4--4----4--4--4--4--6--------------------------------
- --5--7--5----5--5----5--5--5--5--7--8-----8---8-----8---8---8---8-
- --6--8--6----3--6----3--6--3--6--8--10--------10--------10------10
- ------------------------------------------11--------11------11----
- ------------------------------------------------------------------
- ------------------------------------------------------------------
- -----8----------8----------------8------------6-------------------
- ------------------------------------------------------------------
- --6-----6----6-------6--6-----6-----4-----4---------4---4-------4-
- ------------------------------------------------------------------
- ------------------------------------------7-----7---7-----7---7---
- --10--8-----8---8-----8---8---8---8---10--8-----8---8-----8---8---
- --11--10--------10--------10------10--11--10--------10--------10--
- ------------11--------11------11----------------11--------11------
- ------------------------------------------------------------------
- ------------------------------------------------------------------
- --6-------------6---------------------6-------------6-------------
- ------------------------------------------------------------------
- ------4-----4---------4---4-------4-------4-----4---------4---4---
- ------------------
- --7---7---9---10--
- --8---8---10--11--
- ------10--11--12--
- --11--------------
- ------------------
- ----------6-------
- ------------------
- --------------5---
- ------4-----------
- Повторить вторую часть -
ЧАСТЬ 3.
гитара
- --------------------------------------------------------------
- --------------------------------------------------------------
- --3--x--x--3--x--x--3--x--3--x--3--x--x--3--x--x--3--x--3--x--
- --3--x--x--3--x--x--3--x--3--x--3--x--x--3--x--x--3--x--3--x--
- --3--x--x--3--x--x--3--x--3--x--3--x--x--3--x--x--3--x--3--x--
- --------------------------------------------------------------
- --------------------------------------------------------------
- --------------------------------------------------------------
- --3--x--x--3--x--x--3--x--3--x--3--x--x--3--x--x--3--x--3--x--
- --3--x--x--3--x--x--3--x--3--x--3--x--x--3--x--x--3--x--3--x--
- --3--x--x--3--x--x--3--x--3--x--3--x--x--3--x--x--3--x--3--x--
- --------------------------------------------------------------
бас
/ сначала играть эти табы, затем просто ждать окончании партии гитары /
- --6-0-3-0-3-6-0-3-0-3-6-0-3-0-3-6-0-3-0-3-6/----------------------
- ------------------------------------------------------------------
- ------------------------------------------------------------------
- ------------------------------------------------------------------
- ------------------------------------------------------------
- ------------------------------------------------------------
3--x--x--3--x--x--3--x--3--x--3--x--x--3--x--x--3--x--3--x--
3--x--x--3--x--x--3--x--3--x--3--x--x--3--x--x--3--x--3--x--
3--x--x--3--x--x--3--x--3--x--3--x--x--3--x--x--3--x--3--x--
- ------------------------------------------------------------

- ------------------------6-0-3-0-3-6-0-3-0-3-6-0-3-0-3-6-0-3-0-3-
- ----------------------------------------------------------------
- ----------------------------------------------------------------
- ----------------------------------------------------------------
- --------------------------------
- --------------------------------
- --3--x--x--3--x--x--3--x--3--x--
- --3--x--x--3--x--x--3--x--3--x--
- --3--x--x--3--x--x--3--x--3--x--
- --------------------------------
- --------------------------------
- --3--------3--------3-----3-----
- --------------------------------
- -----3--3-----3--3-----3-----3--
- ------------------------------------------------------------------
- ------------------------------------------------------------------
- --3--x--x--3--x--x--3--x--3--x--------------------------3--x--x--3
- --3--x--x--3--x--x--3--x--3--x--------6--------6-----5--3--x--x--3
- --3--x--x--3--x--x--3--x--3--x-----5--------5-----4-----3--x--x--3
- --------------------------------3--------3------------------------
- ------------------------------------------------------------------
- --3--------3--------3-----3-----------6--------6-----5--3--------3
- -----------------------------------5--------5-----4---------------
- -----3--3-----3--3-----3-----3--3--------3-----------------3--3---
- ----------------------------------------------------------------
- --------------------------------------------8/------------------
- --x--x--3--x--3--x-----------------------6------------9--------9
- --x--x--3--x--3--x--------6--4--------5------------8--------8---
- --x--x--3--x--3--x-----5--------3--4------------6--------6------
- --------------------3-------------------------------------------

- -------------------------------------------12--------13-------13
- --------3-----3-----------6--4----------11--------12-------12---
- -----------------------5--------3----10--------10-------10------
- --3--3-----3-----3--3--------------9----------------------------
- ------------------------------------------------------------------
- ------------------------------------------------------------------
- -----8--5--x--x--5--x--x--5--x--5--x--5--x--x--5--x--x--5--x--5--x
- --7-----6--x--x--6--x--x--6--x--6--x--6--x--x--6--x--x--6--x--6--x
- --------5--x--x--5--x--x--5--x--5--x--5--x--x--5--x--x--5--x--5--x
- ------------------------------------------------------------------
- ----12--5--------5--------5-----5-----5--------5--------5-----5---
- -11---------------------------------------------------------------
- -----------5--5-----5--5-----5-----5-----5--5-----5--5-----5-----5
- ------------------------------------------------------------------
- ------------------------------
- --------------------------8/--
- -----------------------6------
- --------6--4--------5---------
- -----5--------3--4------------
- --3---------------------------
- -------------------------12---
- --------6--4----------11------
- -----5--------3----10---------
- --3--------------9------------
ЧАСТЬ 4
гитараскрипка
- ---------------------------------------------------------------
- --1----1--1----1--1----1--1--0--1----1--1----1--1--1--1--0--1--
- --2----2--2----2--2----2--2--4--2----2--2----2--2--2--2--4--2--
- --3----0--3----0--3----0--3--5--3----0--3----0--3--0--3--5--3--
- ---------------------------------------------------------------
- ---------------------------------------------------------------
бас и.т.д.
- ---------------------------------------------------------------
- ----------5-----------------------------5----------------------
- ---------------------------------------------------------------
- --3----3------------------------3----3----------------------3--
- ----------------------------------------------------------------
- --1--1----1--1--1--1--0--1----1--1----1--1--1--1--0-------------
- --2--2----2--2--2--2--4--2----2--2----2--2--2--2--4--5----5--5--
- --0--3----0--3--0--3--5--3----0--3----0--3--0--3--5--6----3--6--
- ----------------------------------------------------------------
- ----------------------------------------------------------------

- ----------------------------------------------------------------
- -----5---------------------------5---------------------------8--
- ----------------------------------------------------------------
- --3----------------------3----3----------------------6----6-----
- -----------------------------------------------------------------
- ---------------------------------------------4----4--4----4--4--4
- --5--5--5--5--7--5----5--5----5--5--5--5--7--5----5--5----5--5--5
- --3--6--3--6--8--6----3--6----3--6--3--6--8--6----3--6----3--6--3
- -----------------------------------------------------------------
- -----------------------------------------------------------------
- -----------------------------------------------------------------
- --------------8----------8----------------8---------8-----------
- -----------------------------------------------------------------
- --6--6-----6-----6----6-------6--6-----6-----6----6-------6--6---

- ------------------------------------------------------------------
- --4--6--4----4--4----4--4--4--4--6--------------------------------
- --5--7--5----5--5----5--5--5--5--7--8-----8---8-----8---8---8---8-
- --6--8--6----3--6----3--6--3--6--8--10--------10--------10------10
- ------------------------------------------11--------11------11----
- ------------------------------------------------------------------
- ------------------------------------------------------------------
- -----8----------8----------------8------------6-------------------
- ------------------------------------------------------------------
- --6-----6----6-------6--6-----6-----4-----4---------4---4-------4-
- ------------------------------------------------------------------
- ------------------------------------------7-----7---7-----7---7---
- --10--8-----8---8-----8---8---8---8---10--8-----8---8-----8---8---
- --11--10--------10--------10------10--11--10--------10--------10--
- ------------11--------11------11----------------11--------11------
- ------------------------------------------------------------------
- ------------------------------------------------------------------
- --6-------------6---------------------6-------------6-------------
- ------------------------------------------------------------------
- ------4-----4---------4---4-------4-------4-----4---------4---4---
- ------------------------------------------------------------------
- --7---7---9---7-----7---7-----7---7---7---7---9-------------------
- --8---8---10--8-----8---8-----8---8---8---8---10--11----11--11----
- ------10--11--10--------10--------10------10--11--12----9---12----
- --11----------------11--------11------11--------------------------
- ------------------------------------------------------------------
- ------------------------------------------------------------7-----
- ----------6-------------6---------------------6-------------------
- --------------------------------------------------5--5--5--------5
- ------4-------4-----4---------4---4-------4-----------------------
- ------------------------------------------------------------------
- ----------------------------------------------------------10----10
- --11--11--11--11--13--11----11--11----11--11--11--11--13--11----11
- --9---12--9---12--14--12----9---12----9---12--9---12--14--12----9-
- ------------------------------------------------------------------
- ------------------------------------------------------------------
- ------------------7-------------7---------------------7-----------
- ------------------------------------------------------------------
- --5---5---5---5-------5--5--5---------5---5---5---5-------5--5--5-
- ------------------------------------------------------------------
- ------------------------------------------------------------------
- --10----10--10--10--10--12--10----10--10----10--10--10--10--12--10
- --11----11--11--11--11--13--11----11--11----11--11--11--11--13--10
- --12----9---12--9---12--14--12----9---12----9---12--9---12--14----
- ------------------------------------------------------------------
- ------------------------------------------------------------------
- --7---------------------7-------------7---------------------7-----
- ------------------------------------------------------------------
- --------5---5---5---5-------5--5--5---------5---5---5---5---------
- ----------------------------------------------------------------3-
- ------------------------------------------------------------------
- ----10--10----10--10--10--10--12--10----10--10----10--10--10--10--
- ----7---10----7---10--7---10--12--10----7---10----7---10--7---10--
- ------------------------------------------------------------------
- ------------------------------------------------------------------
- ------------------------------------------------------------------
- ------------------------------------------------------------------
- --------5---------------------5-------------5---------------------
- ------------------------------------------------------------------
- -3--3---------3---3---3---3-------3--3--3---------3---3---3---3---
- ------------------------------------------------------------------
- --12--10----10--10----10--10--10--10--12--13----13--13----13--13--
- --12--10----7---10----7---10--7---10--12--13----10--13----10--13--
- ------------------------------------------------------------------
- ------------------------------------------------------------------
- ------------------------------------------------------------------
- ------------------------------------------------------------------
- --5-------------5---------------------5-------------8-------------
- ------------------------------------------------------------------
- ------3--3--3---------3---3---3---3-------6--6--6---------6---6---
- ------------------------------------------------------------------
- --13--13--15--13----13--13----13--13--13--13--15--13----13--13----
- --10--13--15--13----10--13----10--13--10--13--15--13----10--13----
- ------------------------------------------------------------------
- ------------------------------------------------------------------
- ------------------------------------------------------------------
- ------------------------------------------------------------------
- ----------8-------------8---------------------8-------------8-----
- ------------------------------------------------------------------
- --6---6-------6--6--6---------6---6---6---6-------6--6--6---------
- ------------------------------------------------------------------
- --13--13--13--13--15--16----16--16----16--16--16--16--18--16----16
- --10--13--10--13--15--17----13--17----13--17--13--17--18--17----13
- ------------------------------------------------------------------
- ------------------------------------------------------------------
- ------------------------------------------------------------------
- ------------------------------------------------------------------
- ------------------8-------------6---------------------6-----------
- ------------------------------------------------------------------
- --6---6---6---6-------4--4--4---------4---4---4---4-------4--4--4-
- --------------------------------
- --16----16--16--16--16--18--(19)
- --17----13--17--13--17--18--(19) Повторить 3 раза
- --------------------------------
- --------------------------------
- --------------------------------
- --------------------------------
- --6---------------------6-------
- ----------------------------(5)- Повтроить 3 раза.
- --------4---4---4---4-----------
ЧАСТЬ 5
гитара
- ---------------------------------------------
- ---------------------------------------------
- ---------------------------------------------
- --5--6----6--5----3--5----5--6----6--5----3--
- --5--6----6--5----3--5----5--6----6--5----3--
- --3--4----4--3----1--3----3--4----4--3----1--
бас
- ----------------------------------------------------------------
- --3--------3--------3-----3-------3--------3--------3-----3-----
- ----------------------------------------------------------------
- -----3--3-----3--3-----3-----3-------3--3-----3--3-----3-----3--
гитара
- ----------------------------------------
- ----------------------------------------
- ----------------------------------------
- --5--6----6--5----3--5----5--6----6--5--
- --5--6----6--5----3--5----5--6----6--5--
- --3--4----4--3----1--3----3--4----4--3--
гитара
- ---------------------------------------------
- ---------------------------------------------
- ---------------------------------------------
- --3--5--6----6--5----3--5----5--6----6--5----
- --3--5--6----6--5----3--5----5--6----6--5----
- --1--3--4----4--3----1--3----3--4----4--3---- повторить 7 раз.
- ---------------------------------------------
- ---------------------------------------------
- ---------------------------------------------
- --1--3--4----4--3----1--3----3--4----4--3---- повторить 14 раз.
- соло скрипки (если хотите, можете смычком по гитаре поводить, тоже сойдет :) -
бас:
- --------------------------------------
- --------------------------------------
- --------------------------------------
- --(3--5)------------------------------
- --(3--5)--5----5--5----5--5--5--5--7--
- --(1--3)--6----3--6----3--6--3--6--8--repeat 4 times
снова бас:
- ------------------------------
- ------------------------------
- ------------------------------
- --3----3--3----3--3--3--3--5--
- --5-------5-------5-----5--6--repeat 4 times
- -------6-------6-----6--------
- Повторить четвертую (!) часть, играя ее немного потише.
ФИНАЛ!!!
На шестиструнной гитаре финал вряд ли будет звучать красиво, а вот на электрогитаре здорово.
гитара (играется быстро)
- --22----22----22----22----22--
- --19----22----19----19----19--
- --19----19----19----19----19--
- --0-----0-----0-----0-----0---
- ------------------------------
- ------------------------------
гитара
- --10----10----10----10----3--
- --7-----10----11----10----3--
- --7-----7-----7-----7-----4--
- --0-----0-----0-----0-----5--
- --------------------------5--
- --------------------------3--
гитара - эту часть необязательно играть, но все-таки...
- --10-10-10-10-10-10-10-10-----------------------------------------
- --------------------------10-10-10-10-10-10-10-10-7-7-7-7-7-7-7-7-
- ------------------------------------------------------------------
- ------------------------------------------------------------------
- ------------------------------------------------------------------
- ------------------------------------------------------------------
гитара - постепенно приглушайте звук.
- ------------------(-----7)----------------------------------------
- ------------------(------)----------------------------------------
- --7-7-7-7-7-7-7-7-(4-----)----------------------------------------
- ------------------------------------------------------------------
- ------------------------------------------------------------------
- ------------------------------------------------------------------
Вот и все. Получилось вроде неплохо. Если что-то не так, пишите на e-mail или оставьте
отзыв.




Ваше мнение



Капча