------------------------------------------------------------------------------
Обозначения в табулатуре:
7~ небольшая "подтяжка" струн, по-простому "завывание"
7h9 эффект hammer-on - затрудняюсь перевести с английского, но если вы хотя бы
немного знакомы с гитарой, то поймете...
9p7 эффект pull-off
7(9) bend - "бенд" - резкий переход с 7 лада на 9-й
(9)7 release - "бенд" наоборот.
(9)r release - переход с 9 лада на открытую струну
7/9 slide up - переход с 7 лада на 9-й - "скольжением" по струне
97 slide down - переход с 9 лада на 7-й - "скольжением" по струне
"натуральное созвучие" - особый акцент на этой ноте
7tr9 trill - вибрация быстрый переход с 7 лада на 9-й и обратно - несколько раз
< "затухание" звука
------------------------------------------------------------------------------
--------------------3~-------------------------3----------3---|
------------------0----------3~------------2---------2--------|
|------5-------5---------------------2/4-----2h4p2p0-----2-----2----2-----|
|----4-----4--2-----------------------------------------------------------|
|--2-----3---0----------x-x-x---------------------------------------------|
----2b3~----3-2-0---------------------------------------------|
A flower lady´s daughter
|----------0---------------------------------7--------------------0------|
|----------1-------1----------------3b--7/10---/12~--15~-1210------0----|
-3---------3~------2--4----------------------------14--------|
----------------/4-------------------------------------------|
|--0-2-3--------3-1------------------------------------------------------|
|--x-x-x--------------------------------------------------------------0--|
As sweet as holy water Said:
|-------3~------------0------------5-----9---8-------------------------|
------------2~---2-------------------r12-------------------|
|---2/4----4-2--4p2p0-2--------4/6---6/8---9---9-----9-----------------|
-------------------------------------------10-8------------|
------------------------------------------------10-8-------|
-----------------------------------------------------128--|
"I´m the school reporter Please teach me",
|-----7~--------10--11--12-----------------------------0-----------5-------5-|
|---------10h12------------10-----------------------8-----------8-----8----5-|
|-6/8-------------------------12-9------------7-9-7-------0--7-------------6-|
-----------------------12-----7/9--------------------------------|
--------------------------0--------------------------------------|
----------------------------0------------------------------------|
well I taught her. Two fingered levi´d sister
|--3--------3~----------10---------------7----------3-------------------|
|--5------5-------10/12----12-1012-----------0-3-0---0-3-0-------------|
|--5----5----------------------------7b9---7----------------2h4p2p0-----|
|-----5-------------------------------------------------------------2---|
------------------------------------------------------------|
------------------------------------------------------------|
Cried, "Peace", I stopped I kissed her.
-------------------------------------------------------------7~--|
-------3---/5-------------5--------------------------~8-----10~--|
---2/4---4----6---0----6----6---0---6--------------9---------7~--|
|--------0---1--------------7----7--------7---7---7-------8--------------9~--|
|------2---2-------------------------------------------10---10---------------|
|-0~------------------------------------------------8------------------------|
Said, "I´m a male resister," I smiled and just unzipped her.

Партия саксофона
В этом месте играть что-то вроде этого - (x x 9 7 8 7)

-------------3-3--------------------------3------3-5---3------3--|
-------------5-5------3~---------------------------------5-------|
|------5-------5---------4-4----4-----4-2~--4p2p0-------6~-------6-----6-----|
|----4-----4--2----------2-2-------------------------------------------------|
|--2-----3---0---------------------------------------------------------------|
----2b3~r--0--------------------------3--------------------------|
High diving chinese trender
|-------6-----8--6~-----------------------7------10-----------------------|
|---------8---------------------------------10/12---12~--8h10-12-10p8-----|
5---------------------7~---9b------------------------------9--|
-------------------/9-----------------------------------------|
|--0--------------------2-2-2---------------------------------------------|
|----7--------------------------------------------------------------------|
Black hair and black suspender
---------7------5-----------------------------3~----------|
|--8---------8~------------------r8-----------------------------------|
-----------76----------6---0---------------3-------------|
|--------7h9-----7/9------------------7-------0-------------------0~--|
------------------------------7-6---43~--------------2~--|
|----0~-----------------------------------------------------------0~--|
Said, "Please me no surrender Just love to feel your Fender."
--------0-------0-------0-------------------9-------9-------9--|
5-------0-------0-------2-----5~---4-----10------10------10----|
6-------------1-------3-------6~---5---9------13------11-------|
|---------6-------6-----------------------6~---6---------------------------|
|---2-3-4-------3-------2-------1------------------------------------------|
-----------------------------5---------------------------------|
All of you know that the girls of the road
Are like apples we stole in our youth.
|-------9------9---------9------------8---------7-7------6~-----|
|----10-----10---------9---9--------9---9-------9-9-------------|
|--9------8----7----9-------9----9-------9-----9-9------9~-----|
------11-----------10-----------9------------8~-----|
----------------------------------------------------|
----------------------------------------------------|
All of you know that the girls of the road
|----9~---------8---9----------------|
|----9~---------9---9----------------|
|----9~---------9---9----------------|
|---11~--------10--11~---------------|
|---11~------------11~---------------|
-------------------------|
Been around but are versed in the truth.
|---7~------7---7------------5--------------6-----8----6-----8~---|
|---8~------8---8--(10)8-------8---8--------8-8----------8--------|
|---7~------7---7--------6~------6----6-----5---5----5-----5------|
|---9~------9---9-------------------------------------------------|
------------------------------------------------------|
|---------0---0---------------------------------------------------|
Stone-headed Frisco spacer Ate all the meat I gave her
|-------10-------------------------------------------------------------|
|--10/12---10/12-------12-------------------------10-8----------------|
------------------------------/11-------------9------------|
------12(14)---r12-----/9-7----------x------x----(9)7------|
----------------------------x-------------------------10---|
-----------------------------------------------------------|
--------------------------------------------------|
-------------------------------------(10)8--------|
--6--------------5(5.5)5(5.5)----5-6-------5~~~---|
|---------5/7---7-75----5-7---------------7------------------|
|--5-7~---------------7---------------------------------------|
--------------------------------------------------|
Said would I like to taste hers And even craved the
flavour
|--------10---------15--19-17-15-------10------------------------------------|
|--/12~------15//17---------------/12-----12p10p8--8-------------------------|
-------------------------------------9---9-7---------------------|
---------------------------------------------9---9-7------7------|
-----------------------------------------------------10-----10-7-|
-----------------------------------------------------------------|
"Like marron-glaced fish bones
--------------------------------------|
--------------------------------------|
|----9-7----9-------------------------------------|
|---11-9---11--------8------------8~-------2~-----|
|--7------7----10------10--------10~-------2~-----|
------8-------8----8-----------0~-----|
Oh lady hit the road!"
------0-------0-------0---------------0----0----0----------------|
|-----5---1-------1-------0-------2----5~---4-----2----2----2----------------|
|-----6-----1---1-------1-------3------6~---5--------1-------------1---------|
|---6----------------------------------6~---6-------------4----2-4---4-2-1---|
|-4-----------3-------2-------1-----------------0--------------------------4-|
-----------------------------------------------------------------|
All of you know that the girls of the road
Been around but are versed in the truth.
----0----------0--------0-4-----------------|
|----5--1-------1--------0--------2------5~---4--5~-----|
|----6----1---1--------1--------3--------6~---5--6~-----|
|--6-----------------2-------------------6~---6--6~-----|
3------2----------1-------------------------|
--------------------------------------------|
All of you know that the girls of the road Moving back ?? back,
back
-----------------------------------------------------|
-----------------------------------------------------|
----------------------------------------------2h4----|
---------------7--------------------0-----2h5-----5--|
|--7------5----7----7-/10--------7----5----0/2-------------------|
|-----5/7----0----0------------0----0----0----------0------------|
--------------------------------------------------------------|
--------------------------------------------------------------|
---------------------------------------------9---/12---14-15--|
----------------12-------------------7/9-/11------------------|
|----7----10----12----12/14------10----7----7/10--------------------------|
|--0----0-----0-----0----------0-----0----0----------------0-----0--------|
-------------------------15----------10----------------------|
-------10-11-12----15/17-------10/12-----------12------------|
|----x-----9-12----------------------------------------/12-----------12--|
-----------------------------------------------------/14-----|
-------------------------------------------------------------|
|--0---0-0-------x-----------0-----------0-----------0---------0---------|
|--------/19-----------15--------15---17--------17-15--|
|-----12--------15-17--------17-------------17---------|
|--12--------16--------------------------16------------|
-------------------------------------------|
-------------------------------------------|
-------------------------------------------|
-----------------------------------------------------------------|
-----------------------------------------------------------------|
|--------5-----5-----5-----5-------------------------------------------------|
|----4~------4-----4-----4---4---------------------------------------5-------|
|-/2-------0-----3-----2------------------------5-5-7-5-7--------5-5---7p5h7-|
-------------------(3)2(3)2p0~--5/7------------0-5/7-------------|
Ladies of the road
-----------------------------------------------------------|
-----------------------------------------------------------|
-----------------------------------------------------------|
------------------5------------5-5-7-5-7--------5-5-7-5----|
|--------5-5-7-5-7--------5-5---7-0--0-5/7------------0-5/7---------7--|
|--0-5/7------------0-5/7----------------------------------------------|
Ladies of the road Ladies of the road
---------------------------------------------------|
---------------------------------------------------|
----------------------------------3~---------------|
------------------5---------------2~---------------|
|--------5-5-7-5-7--------5-5---7--0~~-----3--1~------3--------|
|--0-5/7------------0-5/7--------------------------3-----0~~---|
Ladies of the road
|-------10------12----15-10-12--------10------------------------------------|
12-----12-----------10(12)----r10-8-----8-12---10---8h10p8--8----|
--------------------------------------9-------------------11--9--|
-----------------------------------------------------------------|
|--7-------------------------------------------------------------------------|
-----------------------------------------------------------------|
Ladies of the road
--повторять X раз--
-----------------------------------------------|-15--17p15-------|
|--12--10--8-----12--10--8-----11--10--8--8-----11--10--14-0h17--|
-7-9-----------7-9--------------7-9------------|*---------------*|
-----------------------------------------------|*---------------*|
-----------------------------------------------------|
-----------------------------------------------------|
Ladies of the road Ladies of the road Ladies of the
road





Ваше мнение



Капча