|Соло:
| 4/4
| Em C7 Eb C7 G
||0------------------------------|
||0---------------|1---------------|4-------5-------|8---------------|
||0---------------|3---------------|3-------3-------|7---------------|
||2---------------|2---------------|5-------5-------|9---------------|
||2---------------|3---------------|6-------3-------|10--------------|
||0------------------------------|
|
| Em C7 Cm7 C7 G
---------|
||8---------------|8---------------|8-------8-------|8---------------|
||9---------------|9---------------|8-------9-------|7---------------|
||9---------------|8---------------|8-------8-------|9---------------|
||7---------------|10--------------|10------10------|10--------------|
|-----|8---------------|8-------8------------|
|Припев:
| 4/4
|Гитара 1.
| Em C7 Eb C7 G
---------|
---------|
||3-0-3-0-3-0-3-0-|3-0-3-0-3-0-3-0-|3-0-3-0-3-0-3-0-|3-0-3-0-3-0-3-0-|
||2---------------|2---------------|5-------2-------|0---------------|
||2---------------|3---------------|6-------3-------|2---------------|
||0-------------------------|3---------------|
|
| Em C7 Eb C7 G
---------|
---------|
||3-0-3-0-3-0-3-0-|3-0-3-0-3-0-3-0-|3-0-3-0-3-0-3-0-|3-0-3-0---------|
||2---------------|2---------------|5-------2-------|0---------------|
||2---------------|3---------------|6-------3-------|2---------------|
||0-------------------------|3---------------|
|
|Гитара 2.
|-----|
|-----|
||15--15--15--15--|
||--17--17--17--17|
|-----|
|-----|
|Проигрыш:
|4/4
| Em C(7) Eb G
||0-------------------------|3---------------|
||0---------------|1---------------|4---------------|3---------------|
||0---------------|0(3)------------|3---------------|4---------------|
||2---------------|2---------------|5---------------|5---------------|
||2---------------|3---------------|6---------------|5---------------|
||0-------------------------|3---------------|
|
| 2/4
| Em C(7) Eb Em F
||0-------------------------|--------|
||0---------------|1---------------|4-------8-------|10------|
||0---------------|0(3)------------|3-------9-------|10------|
||2---------------|2---------------|5-------9-------|10------|
||2---------------|3---------------|6-------7-------|8-------|
||0-------------------------|--------|
|Проигрыш перед припевом (2-ой проигрыш):
| 4/4
| A Ab5 A Ab5
---------|
||10--------------|10--------------|10--------------|10--------------|
||9---------------|8---------------|9---------------|8---------------|
||11--------------|11--------------|11--------------|11--------------|
||12--------------|12--------------|12--------------|12--------------|
---------|
|Небольшое соло:
|-----|
|-----|
||----3-------3---|
||--5-------2-----|
||6-----5-4-----3-|
|-----|
|Проигрыш 3:
| 7/8 5/8 4/8 7/8 5/8 4/8
| E A E
|---|----------|----------|--------|
|---|----------|----------|--------|
||1---1---1---1-|1---1---1-|1---1---|2-1-2-1-2-1-2-|1---1---1-|1---1---|
||--2---2---2---|--2---2---|--2---2-|2-------------|--2---2---|--2---2-|
||-(2)----------|----------|-(2)------|--------|
|---|----------|----------|--------|
|
| E A
|---|----------|
|---|----------|
||1---1---1---1-|1---1---1-|1---1---|2-1-2-1-2-1-2-|
||--2---2---2---|--2---2---|--2---2-|2-------------|
|---|----------|
|---|----------|
|
| G C
|---|----------|----------|--------|
|---|----------|----------|--------|
||4---4---4---4-|4---4---4-|4---4---|5-4-5-4-5-4-5-|4---4---4-|4---4---|
||--5---5---5---|--5---5---|--5---5-|5-------------|--5---5---|--5---5-|
||-(5)----------|----------|-(5)------|--------|
|---|----------|----------|--------|
|
| G Cm G#
|---|------------|
|---|------------|
||4---4---4---4-|4---4---4-|4---4---|5-4-5-4-5-----5-|
||--5---5---5---|--5---5---|--5---5-|5-------6---6---|
||-(5)----------|----------|--------|--------6-6-----|
|---|----------|--------|--------4-------|
|
|Снова проигрыш перед припевом (проигрыш 2):
| A Ab5 A Ab5
---------|
||5---------------|4---------------|5---------------|4---------------|
||6---------------|6---------------|6---------------|6---------------|
||7---------------|7---------------|7---------------|7---------------|
||7------------------------------|
||5------------------------------|
Снова небольшое соло, но немного в другом виде:
---------|
---------|
||6----------/11-8-11/-|18-9----/18-8-|11--18--20--20-|
---------|
---------|
---------|
|-----|
|-----|
|-----|
|-----|
||6-----5-4-------|
|-----|

|Проигрыш 4:
---------------------------------------------|
||11----8-----11---4--------4---8-----------0--4---------------------|
||11----8-----11---2--------4---8---4-------0--4---------------------|
------------3--------------------------------|
---------------------------------------------|
---------------------------------------------|
|Соло:
------------------------------------------|
------------------------------------------|
------------------------------------------|
-----------------------8------------------|
||7---5-7---5---7--5-7---5-7-5-7---5-7---5-7----------------------|
------------------------------------------|
----------------------------------|
----------------------------------|
----------------------------------|
---------------------8---5-8-5-8--|
||7---5-7---5-7-5-7----5-7----5-7---5-7-5-7---------------|
----------------------------------|
------|
------|
|-6/7--7------/12|
||--5--8/11-------------------|
------|
------|
||-15--13--15-------15----------15-14-13-12-11----------------------------15---|
----12-------------------15-14-13-12-------------------|
|--15------15------------------------------------15-14-13-12-------|
-------------------------------------------------------|
-------------------------------------------------------|
-------------------------------------------------------|
C
|-20-22-202220-|18201817-17181715-15171514-14151412-|
----------------------------|
||------19------------------------------------------|
----------------------------|
||-17-----------------------------------------------|
----------------------------|
G# A
||11121110-1011109-91097-875-|7-8--/18------19---21--11--------------|
---------------------------------|
---------------------------------|
---------------------------------|
---------------------------------|
---------------------------------|
| Проигрыш 5 (финал):
||-14-----11---14---11------7---11---7----------7----------------------------|
||-11-----11---11---10------8---12---8------8---8---0------------------------|
--------------------9-------0------------------------|
----------------------------2------------------------|
-----------------------------------------------------|
-----------------------------------------------------|
--------------------------|
--------/-----------------|
||-----/9----3----------6-/--/--------------------|
||-2----------------------------------------------|
--------------------------|
--------------------------|





Ваше мнение



Капча