Cat Food
King Crimson
Transcribed by Justin Benz
0:00
G---|----------------------|----------------------|----------------------|------
D---|----------------------|-------------5--------|----------------------|------
A---|-------------7--------|--7-----5h7-----------|-------------5--------|------
E---|--7--0--5h7-----------|-----0----------------|--7--0--5h7-----------|------


G-----------------------|------------------------------|------------------------
D--------------5--------|------------------------------|------------------------
A---7-----5h7-----------|-------------5----------------|-------------5----------
E------0----------------|--7--0--5h7--------0/5-----7--|--0--0--5h7-------------


G---|------------------------------|----------------------|---------------------
D---|-------------5----------------|----------------------|----------------7----
A---|--------5h7-------------------|-------------5--------|--------9--7h9-------
E---|--5--5-------------0/5-----7--|--0--0--5h7-----------|--7--7---------------

0:34
G-----------------|----------------------|----------------------|---------------
D-----------------|----------------------|-------------5--------|---------------
A-----------------|-------------5--------|--7-----5h7-----------|--7------------
E------0/5-----7--|--0--0--5h7-----------|-----0----------------|-----0--5------


G------------------------|-------------------------|----------------------------
D------------------------|-------------------------|-------------5--------------
A-------5----------------|-----7----------5--------|--------5h7-----------------
E---h7--------0/5-----7--|--0-----0--5h7-----------|--5--5-------------0/5------


G---------|----------------------|---------------------------------|------------
D---------|----------------------|----------------7----------------|------------
A---------|-------------5--------|--------9--7h9-------------------|------------
E------7--|--0--0--5h7-----------|--7--7----------------0/5-----7--|--0--0------

0:57
G-----------------|----------------------------|--------------------------------
D-----------------|----------------5--------5--|--4-----------------------4-----
A--------5--------|--7--------7p5--------------|--------------------------------
E---5h7-----------|-----5--5-------------------|-----2-----2--------2-----------


G---|-----------------------------|--------------------------------|------------
D---|--2-----------------------5--|--4-----------------------------|------------
A---|-----------------------------|-----------------------------3--|--2---------
E---|-----0-----0--------0--------|-----2-----2-----2-----5--------|------------


G------------|----------------------|----------------------|--------------------
D------------|----------------------|-------------5--------|--------------------
A------------|-------------5--------|--7-----5h7-----------|--------------------
E------------|--7--0--5h7-----------|-----0----------------|--5--5--5--3--3-----


G------|----------------------|-----------------|----------------------|--------
D------|----------------------|-----------------|----------------------|--------
A------|-------------5--------|-----------------|-------------5--------|--------
E---3--|--0--0--5h7-----------|--5--5--5--3-----|--0--0--5h7-----------|--5-----


G------------|----------------------|--------------------|----------------------
D------------|-------------5--------|--------------------|----------------------
A------------|--------5h7-----------|--------------------|-------------5--------
E------7-----|--5--5----------------|--5--5-----3-----3--|--0--0--5h7-----------

1:39
G------|-----------------|-----------------|----------------------|-------------
D------|-----------------|-----------------|----------------------|-------------
A------|-----------------|-----------------|-------------5--------|--7-----5----
E------|--7--------------|--5--------------|--7--0--5h7-----------|-----0-------


G-------------------|-----------------------------|-----------------------------
D-------5--------5--|--4-----------------------4--|--2--------------------------
A---h7--------------|-----------------------------|-----------------------------
E-------------------|-----2-----2--------2--------|-----0-----0--------0--------


G------|--------------------------------|-----------------|---------------------
D---5--|--4-----------------------------|-----------------|---------------------
A------|-----------------------------3--|--2--------------|------------5--------
E------|-----2-----2-----2-----5--------|-----------------|--7--5h7-----------

2:02
G------|----------------------|------------------------------|------------------
D------|-------------5--------|------------------------------|------------------
A------|--7-----5h7-----------|--7----------5----------------|-------------5----
E------|-----0----------------|-----0--5h7--------0/5-----7--|--0--0--5h7-------


G---------|------------------------------|----------------------|---------------
D---------|-------------5----------------|----------------------|---------------
A---------|--------5h7-------------------|-------------5--------|---------------
E---------|--5--5-------------0/5-----7--|--0--0--5h7-----------|--7--7--7------


G---------------------------|----------------------|----------------------|-----
D-----------7---------------|----------------------|-------------5--------|-----
A---9--7h9------------------|-------------5--------|--7-----5h7-----------|-----
E-----------------0/5-----7|--0--0--5h7-----------|-----0----------------|-----


G------------------|----------------------|-----------------|-------------------
D------------------|----------------------|-----------------|-------------------
A------------------|-------------5--------|-----------------|-------------5-----
E---5--5-----3-----|--0--0--5h7-----------|--5--5-----3-----|--0--0--5h7--------


G---------|----------------|----------------------|--------------------|--------
D---------|----------------|-------------5--------|--------------------|--------
A---------|----------------|--------5h7-----------|--------------------|--------
E---------|--5--5-----7---|--5--5----------------|--5--5--5--3--3--3--|--0-----

2:46
G--------------------|-----------------|-----------------|----------------------
D--------------------|-----------------|-----------------|----------------------
A-----------5--------|-----------------|-----------------|----------------5-----
E---0--5h7-----------|--7--------------|--5-----------5--|--7-----0--5h7--------


G------------------|----------------------|--------------------|----------------
D------------------|----------------------|--------------------|----------------
A------------------|-------------5--------|--------------------|----------------
E---------7-----5--|-----0--5h7-----------|--5--5--5--3--3--3--|--0--0--5h7-----


G------------|-------------------|---------------------|------------------------
D------------|-------------------|-------------5/------|------------------------
A---5--------|-------------------|--------5h7----------|------------------------
E------------|--5------/7--------|--5--5---------------|--12--12--12--12--12----


G-------|----------------------|-----------------|--------------------|---------
D-------|----------------------|-----------------|--------------------|---------
A-------|-------------5--------|-----------------|--------------------|---------
E---12--|--12--5h7-----------|--7--------------|--5--------------5--|--7------


G--------------------------------|-------------------------|--------------------
D--------------------------------|-------------------------|-----7--------9-----
A--------------5-----------------|----------------5--------|--------------------
E------0--5h7-----------5h6p5--7p|--6-----0--5h7-----------|--5-----5--7--------


G------|----------------------|--------------------|--------------------|-------
D------|----------------------|--------------------|--------------------|-------
A------|-------------5--------|-----7--------------|--------------------|-------
E---7--|--0--0--5h7-----------|--5-----5--7--7--7--|--5-----5--7-----7--|--5----


G------------------|--------------------|----------------------|----------------
D---------5--------|--------------------|----------------------|----------------
A------------------|--------------------|-------------5--------|----------------
E------5-----------|--5--5--5--3--3--3--|--0--0--5h7-----------|--7-------------

3:33
G------|-------------------------------|-------------------------------|--------
D------|-------------------------------|-------------------------------|--------
A------|-------------------------------|-------------------5-----------|--------
E------|--5-----------5/753/5-----5--|--7-----x-----5h7-----------5--|--7-----


G-----------------------------|--------------------|----------------------|-----
D-----------------------------|--------------------|----------------------|-----
A--------------5--------------|--------------------|-------------5--------|-----
E------0--5h7-----------0--0--|--5--5-----3-----3--|--0--0--5h7-----------|-----


G----------------------------------------------|--------------------|-----------
D----------------------------5-----7-----5-----|--------------------|-----------
A---------7-----5-----5h6h7-----------------7--|--------------------|-----------
E---5------------------------------------------|--5--5--5--3--3--3--|--0--0-----


G-----------------|-----------------|-----------------||------------------------
D-----------------|-----------------|-----------------||*-----------------------
A--------5--------|-----------------|-----------------||*----------------5------
E---5h7-----------|--7--------------|--5-----------5--||---7-----0--5h7---------

Repeat and Fade
G------------|-----------------------------||-----------------------------------
D------------|----------------------------*||-----------------------------------
A------------|----------------5-----------*||-----------------------------------
E---------5--|--7-----0--5h7-----------5---||-----------------------------------


================================================================================
== Created with a demo version of BUCKET O' TAB ==
== tablature creation software for Windows ==
== http://www.his.com/~gse/bucket ==
================================================================================





Ваше мнение



Капча