From: Nils Winkler
'Millenium' by Killing Joke
as recorded on the 'Pandemonium'-CD
Transcribed by NILS WINKLER, [email protected]
A pretty easy song with lots of POWER CHORDS. Listen to the CD
to get the rhythms and when to mute the strings (which you have to
do for the most of the song). Send any suggestions or corrections to
my address or to my brother: [email protected]
[email protected]
Riff A
e:------------------|
B:------------------|
G:------------------|
D:------0-------0h2-|
A:-0h2-----0h2------|
E:------------------|
Rhythm Figure 1------------------------------------------------------
Riff B Riff C 3*Riff B
e:----------------------|------------------------|---------|-----------|
B:----------------------|------------------------|---------|-----------|
G:----------------------|------------------------|---------|-----------|
D:-2--2--2----2----2----|------------------------|---------|-3----2----|
A:-2--2--2----2----2----|------------------------|---------|-3----2----|
E:-0--0--0----0----0----|-0--3--2--1--0--3--2----|---------|-1----0----|
-----------------------------------End
3*Riff B, 1*Riff C, 3*Riff B, 1*Riff A
Rhythm Figure 2----------------------------------------
Bridge
e:------------------------------------------------------|
B:------------------------------------------------------|
G:------------------------------------------------------|
D:-3----2--2--2-----3----2--2--2-----3----2--2--2-----3-|
A:-3----2--2--2-----3----2--2--2-----3----2--2--2-----3-|
E:-1----0--0--0--0--1----0--0--0--0--1----0--0--0--0--1-|
--------------------------------------------------------End
Pre-Chorus Chorus
e:----------------------------------------|------------------|
B:----------------------------------------|------------------|
G:----------------------------------------|------2----5----3-|
D:-2----2----2----2----2--2--2-------2--2-|-2----2----5----3-|
A:-2----2----2----2----2--2--2-------2--2-|-2----0----3----1-|
E:-0----0----0----0----0--0--0----1--0--0-|-0----------------|
Rhythm Figure 3---------------------------------------------End
3*----------------------------- 1*Riff A
e:--------------------------------|--------------------|---------|
B:--------------------------------|--------------------|---------|
G:--------------------------------|--------------------|---------|
D:-2--2--2----2--2--2----2--2--2--|-2--2--2----2--2--2-|---------|
A:-2--2--2----2--2--2----2--2--2--|-2--2--2----2--2--2-|---------|
E:-0--0--0----0--0--0----0--0--0--|-0--0--0----0--0--0-|---------|
Rhythm Figure 4------------------------------
e:--------------------------------------------|
B:--------------------------------------------|
G:-4--------7----4----------------------------|
D:-4--------7----4----2--2--2--2--2--2--2--2--|
A:-2--------5----2----2--2--2--2--2--2--2--2--|
E:--------------------0--0--0--0--0--0--0--0--|
---------------------------------------End
e:------------------------------------------|
B:------------------------------------------|
G:-4--------7----4--------------------------|
D:-4--------7----4----2--2----2--2----2--2--|
A:-2--------5----2----2--2----2--2----2--2--|
E:--------------------0--0----0--0----0--0--|

Those were the main rhythms, now here is in which order to play them:
1*Riff A
2*Rhythm Figure 1 Without Vocals
1*Rhythm Figure 1 With Verse 1
1*Rhythm Figure 2 With Pre-Chorus & Chorus
1*Rhythm Figure 3
1*Rhythm Figure 1 Without Vocals
1*Rhythm Figure 1 With Verse 2
1*Rhythm Figure 2 With Pre-Chorus & Chorus
2*Rhythm Figure 4
4*Bridge
16*Pre-Chorus
6*Chorus
1*Rhythm Figure 3
Lyrics:
Verse 1:
I Was Born To See Two Thousand Years
Of Man's Effect Upon The Planet
Extinction Seems To Be A Plausibla Risk
Whatever Happens Well I'm Part Of All This
Verse 2:
Fire Burn Away All Our Uncertainties
Water Wash Away Impurities
Contradictions And Predections Abound
Yes I Believe That We Can Turn It Around
Pre-Chorus:
My Life I've Been Waiting For This Moment
All My Life I've Been Waiting For This Moment To Come
Chorus:
Taste The Salt Of My Tears
Taste The World From My Years
Singing Evil Will Live With You
My Solution's For Sure
Always Doesn't One Know
Singing Evil Will Live With You
*********************************************************************
* *
* Mahlzeit! NILS WINKLER *
* [email protected] *
* *
*********************************************************************





Ваше мнение



Капча