F O L L O W T H E L E A D E R S
-------------------------------------
Author : Eka Suma (Eka Pig Youth)
Address: [email protected]
Artist : Killing Joke
Song : Follow the Leaders
Album : What's THIS for! (1981)
1
e--------------------|--------------------|
B--------------------|---------------2-4-2|
G--------------------|---------------2-2-2| go to 2
D--------------------|---------------2-2-2|
A--------------------|---------------0-0-0|
E--------------------|--------------------|
A
Come in-side boy they call this fun
Music to please the ad-olescence
Taking the easy way out a - again
Part of the process same old sto - ry
You just condone all that you mean
Daytime - doesn't last for - ever
Shouting about it taking the bait
Walking again in the same di - rection
Time moves on and then you notice
ground starts to tremble beneath your feet
Man killed man and blood was - shed
Gasps of re - lief for hu - man na -ture
2 *
e--------------------|--------------------|
B-4-----2--2------4-2|-4-----2--2------4-2|
G-2-----2--2------2-2|-2-----2--2------2-2|
D-2-----2--2------2-2|-2-----2--2------2-2| back to 1
A-0-----0--0------0-0|-0-----0--0------0-0|
E--------------------|--------------------|
* chord is muffled
3
e--------------------|--------------------|
B--------------------|--------------------| play 3 twice
G9-99-9-9--9-9-9-9-9-|9-99-9-9--9-9-9-9-9-| then go to 1 again
D9-99-9-9--9-9-9-9-9-|9-99-9-9--9-9-9-9-9-|
A7-77-7-7--7-7-7-7-7-|7-77-7-7--7-7-7-7-7-|
E--------------------|--------------------| slide bar chord to D
E
Follow the leaders
Look at the leader (2nd time only)
e--------------------|--------------------|
B--------------------|--------------------|
G7-77-7-7--7-7-7-7-7-|--------------------|
D7-77-7-7--7-7-7-7-7-|-----6-------6-----6|
A5-55-5-5--5-5-5-5-5-|4------4--------4---|
E--------------------|--------------------|
D C#
^^^^^ ^^^^^^ vibrato





Ваше мнение



Капча