-------------------------------------------------------------------------------
OUTSIDE OF ME - Killing Heidi
-------------------------------------------------------------------------------
Tabbed By: Anthony Chmiel (rhcp_guitarist on Ultimate Guitar)
Standard Tuning (low to high eadgbe)

/ = slide
h = hammer on

Intro/Verse (clean)
e|----5----5----5----5----5------5----5----5----5----5---|
B|-33---33---33---33---33---3-00---00---00---00---00---0-|
G|-------------------------------------------------------|
D|-------------------------------------------------------|
A|-------------------------------------------------------|
E|-------------------------------------------------------|
x3
e|----5----5----5----5----5-----------0------------------|
B|------------------------------------------3333333------|
G|-00---00---00---00---00---0-------0---0---2222222------|
D|----------------------------0h1/2---------0000000------|
A|-------------------------------------------------------|
E|-------------------------------------------------------|

Pre-Chorus (clean)
e|-------------------------------------------------------|
B|--3------0------3------0------3------0-----------------|
G|--2------4------2------4------2------4-----------------|
D|--0------4------0------4------0------4-----------------|
A|---------2-------------2-------------2-----------------|
E|-------------------------------------------------------|
just strum these chords a few times each the timing is simple

Chorus (Distorted)
e|----------------------------------------------------------|
B|----------------------------------------------------------|
G|----7777777-----------------------------------------------|
D|----7777777---7777777---9999999---5555555-----------------|
A|----5555555---7777777---9999999---5555555-----------------|
E|--------------5555555---7777777---3333333-----------------|

Intro/verse x 3
Pre-Chorus
Chorus but twice as long
Interlude is the same as chorus but without distortion (clean)
Chorus again
The Outro is the Intro/Verse played once.
That's It! enjoy.





Ваше мнение



Капча