Mascara
By Killing Heidi
Hello, this is my first tab but i think it is a good effort. if you
don't have a five stringer don't worry, just use and open E instead of
the open B. These are just the basic riffs, listen to the song to ge the
timing.
Written By Jed The Miserable ([email protected])

[email protected]-----
D---------------------------------------------------------------------
A---5-----5-----------------------------------------------------------
E------------7-----7--3-----3--5-----5--------------------------------
B---------------------------------------------------------------------


G-----------------------------------------------------------------------
D-----------------------------------------------------------------------
A---5--5--5--5--5-------------------------------------------------------
E---------------------7--7--7--7--7-----3--3--3--3--3-----5--5--5--5--5-
B-----------------------------------------------------------------------

G-----------------------------------------------------------------------
D-----------------------------------------------------------------------
A---5--5--5--5--5--5--5--------------------------5--5--5--5--5----------
E---------------------------7--7--7-----5--5--5-----------------3-------
B-----------------------------------------------------------------------


G---------------------------------------------------------------------
D---------------------------------------------------------------------
A------5-----------5--5-----------------------------------------------
E---5-----3-----5-----------------------------------------------------
B---------------------------------------------------------------------


G-----------------------------------------------------------------------
D-----------------------------------------------------------------------
A---5--5--5--5--5--5--5-------------------------------------------------
E---------------------------7--7--7--7--7--7--7-----1--1--1--1--1-------
B------------------------------------------------------------------0----


G-----------------------------------------------------------------------
D-----------------------------------------------------------------------
A-----------------------------------------------------------------------
E------1--1--------1--1-------------------------------------------------
B------------0----------------------------------------------------------

========================================================================
== Created with a demo version of BUCKET O' TAB ==
== tablature creation software for Windows ==
== For more info email [email protected] ==
========================================================================





Ваше мнение



Капча