Transcribed by: Jase Mac
Email: [email protected]
Artist: Killing Heidi
Song Title: Live Without It
Album- Reflector
Tabbed: 30-01-01

Chords
A G5 Bb5 C7 E7 D#7 D7
e|--------------------------8-----12-----11-----10----------
B|-2------------------------8-----15-----14-----13----------
G|-2------------------------9-----13-----12-----11----------
D|-2-------5---------8------8-----12-----11-----10----------
A|-0-------5---------8------10----14-----13-----12----------
E|---------3---------6------8-----12-----11-----10----------

Intro/Verse/Outro
(Guitar 2 kicks in with distortion half way through verse)
e|----------------------------------------------------------
B|-----3----3-------5----5-------5----5-------5----5--------
G|-------0--0---------0--0---------0--0---------0--0--------
D|----------------------------------------------------------
A|--3----------3-5----------5-4----------4-5-----------4----
E|----------------------------------------------------------

You know we can make things happen that;
is what you say when 'always comes' An'.
I feel what you don't feel, its real.
An' that is why we make then under stand!

Chorus
A G5 Bb5 C7
We'll show them we can live without it
A G5 Bb5 C7
we'll prove you get through without it



I know about what goes on in there
but I know better not to sit an stare
too long at yeah, what makes me colour blind
you're like the sun, but you never shine!

A G5 Bb5 C7
We'll show them we can live without it
A G5 Bb5 C7
we'll prove you get through without it


E7 D#7 D7 E7 D#7 D7 E7 D#7 D7
But sometimes it feels so right, it feels so right,

E7 D#7 D7
it feels so right.

Outro -first riff

Thats basically it dude's , ENJOY!!!





Ваше мнение



Капча